Song name
# A B C D E F G H I J K L M N O P Q R S T U V W X Y Z

Loquillo Y Los Trogloditas - El Ritmo De Garage tab

intro:
   G5 C5 G5  C5    D5      G5 C5 G5   C5    G5
e------------------------------------------------|
B------------------------------------------------|
G-----5------5-5---7-7-7-7-----5------5--5-------|
D--5--5--5---5-5---7-7-7-7--5--5--5---5--5--5-5--|
A--5--3--5---3-3---5-5-5-5--5--3--5---3--3--5-5--|
E--3-----3------------------3-----3---------3-3--|x3
  \3/                      \3/

saxo(arreglo guitarra) x2
e--10~-12-10----------------|
B------------12-10----------|
G------------------12-9-12~-|
D---------------------------|
A---------------------------|
E---------------------------|


G5                C5
   Tu madre no lo dice no
D5              G5
   pero me mira mal
C5                       D5
  quien es ese chico tan raro con el que vas

  G5 C5 G5   C5    G5
e-----------------------|
B-----------------------|
G-----5------5--5-------|
D--5--5--5---5--5--5-5--|
A--5--3--5---3--3--5-5--|
E--3-----3---------3-3--|

G5                  C5
   Cuando yo estoy delante
D5               G5
   me trata muy normal
C5                  D5
   y a solas se imagina un novio mas formal

  G5 C5 G5   C5    G5
e-----------------------|
B-----------------------|
G-----5------5--5-------|
D--5--5--5---5--5--5-5--|
A--5--3--5---3--3--5-5--|
E--3-----3---------3-3--|


C5                     D5
   cualquier noche los gatos, uh uh uh
G5            E5(x7999x)
   de tu callejón
C5              G5               riff A
   maullaran a gritos esta canción

riff A                     (C5)se queda sonando
e------------------------------|
B------------------------------|
G--7--5/6-7---7-7-5/6-7--6--5--|
D--7--5/6-5---5-5-5/6-5--6--5--|
A--5--3/4-5---5-5-3/4-5--4--3--|
E------------------------------|

                      D5
   cualquier noche los gatos, uh uh uh
G5            E5(x7999x)
   de tu callejón
C5              G5               D5
   maullaran a gritos esta canción


e----------------------------------------------------------|
B----------------------------------------------------------|
G--7--5/6-7(7)---7---8---9---9-9-9-9-9--5---5-5-5-5-5---7--|
D--7--5/6-7(7)---5---8---9---9-9-9-9-9--5---5-5-5-5-5---7--|
A--5--3/4-5(5)---5---6---7---7-7-7-7-7--3---3-3-3-3-3---5--|
E----------------------------------------------------------|
                por-que-yo   tengo una banda de rock n'roll

e--------------------------------------------------------------|
B--------------------------------------------------------------|
G--7-7-7-7-7--------------------------------5---5-5-5-5-5---7--|
D--7-7-7-7-7--5--5-5-5---4---2---2-2-2-2-2--5---5-5-5-5-5---7--|
A--5-5-5-5-5--5--5-5-5---4---2---2-2-2-2-2--3---3-3-3-3-3---5--|
E-------------3--3-3-3---2---0---0-0-0-0-0---------------------|
       oh uh oh!    por-que-yo   tengo una banda de rock n'roll

e--------------------------|
B--------------------------|
G--7--5/6-7---7-7-5/6-7(7)-|
D--7--5/6-5---5-5-5/6-5(7)-|
A--5--3/4-5---5-5-3/4-5(5)-|
E--------------------------|


como intro:
   G5 C5 G5  C5    D5      G5 C5 G5   C5    G5
e------------------------------------------------|
B------------------------------------------------|
G-----5------5-5---7-7-7-7-----5------5--5-------|
D--5--5--5---5-5---7-7-7-7--5--5--5---5--5--5-5--|
A--5--3--5---3-3---5-5-5-5--5--3--5---3--3--5-5--|
E--3-----3------------------3-----3---------3-3--|
  \3/                      \3/

saxo(arreglo guitarra)
e--10~-12-10----------------|
B------------12-10----------|
G------------------12-9-12~-|
D---------------------------|
A---------------------------|
E---------------------------|

(y se repite...)
Tap to rate this tab
# A B C D E F G H I J K L M N O P Q R S T U V W X Y Z