Song name
# A B C D E F G H I J K L M N O P Q R S T U V W X Y Z

Lord Gore - Man Of Shit tab

Gorelord
Man of Shit
Norwegian Chainsaw Massacre (The Final Cut)
Drop-A

intro W/cruch
B |-------------------------|
Gb|-------------------------|
D |-------------------------|
A |-------------------------|
E |-------------------------|
A |-3-2-1---3-2-0---1-0-1-0-|

Main W/Heavy Palm muting
B |-------------------------|
Gb|-------------------------|
D |-------------------------|
A |-3-2-1---3-2-0---1-0-1-0-|
E |-3-2-1---3-2-0---1-0-1-0-|
A |-3-2-1---3-2-0---1-0-1-0-|
    . . .   . . .   . . . .

Verse Lead Distortion
B |-11-11--|
Gb|-15-15--|
D |--------|
A |--------|
E |--------|
A |--------|

Verse Rhythm Clean
B |---------------------------------|
Gb|---------------------------------|
D |-----999-----------10-10-10-6-7--|
A |-777-----8-7---777---------------|
E |---------------------------------|
A |---------------------------------|

Bridge W/ Heavy Palm muting
B |---------------------------------------------------------|
Gb|---------------------------------------------------------|
D |---------------------------------------------------------|
A |---------------------------------------------------------|
E |-4-1-0--3-1-0--4-1-0--3-1-0--4-1-0--3-1-0--4-1-0--3-1-0--|
A |-4-1-0--3-1-0--4-1-0--3-1-0--4-1-0--3-1-0--4-1-0--3-1-0--|
    . . .  . . .  . . .  . . .  . . .  . . .  . . .  . . .

B |---------------------------------------------------------|
Gb|---------------------------------------------------------|
D |---------------------------------------------------------|
A |---------------------------------------------------------|
E |-4-1-0--3-1-0--4-1-0--3-1-0--4-1-0--3-1-0--4-1-0---------|
A |-4-1-0--3-1-0--4-1-0--3-1-0--4-1-0--3-1-0--4-1-0--3B-----|
    . . .  . . .  . . .  . . .  . . .  . . .  . . .

Soft Interlude Distorted Rhythm
B |------------------------------------------|
Gb|-------0----------0---------0---------0---|
D |-----0----------0---------0---------0-----|
A |---5----------5---------2---------2-------|
E |-7--------7-6-------6-3-------3-3-------3-|
A |------------------------------------------|

B |------------------------------------------|
Gb|-------0----------0---------0---------0---|
D |-----0----------0---------0---------0-----|
A |---5----------5---------2---------2-------|
E |-7--------7-6-------6-3-------3-0-------0-|
A |------------------------------------------|

Backwards guitar interlude lead
B |----------------------------------------------|
Gb|----------------------------------------------|
D |-14/17/16--16-16//7--11-11/14/12--12-12/16/14-|
A |----------------------------------------------|
E |----------------------------------------------|
A |----------------------------------------------|

End.
Tap to rate this tab
# A B C D E F G H I J K L M N O P Q R S T U V W X Y Z