Song name
# A B C D E F G H I J K L M N O P Q R S T U V W X Y Z

Lord Gore - Kicked To Death tab

Help us improve GuitareTab! Take a short survey!
LORD GORE - KICKED TO DEATH
FROM 'RESICKENED'
AS DECIPHERED BY JAMES MAITLAND

Tune to B (2.5 steps down/manly tuning)


Riff A

B |-----------------------------------------------------------------|
F#|-----------------------------------------------------------------|
D |-----------------------------------------------------------------|
A |-------------7-8-------------7-8-------------7-8-----------------|
E |-7777777777775-6-7777777777775-6-7777777777775-6-5---7---4---5---|
B |-000000000000----000000000000----000000000000----3---5---2---3---|

Riff B

B |------------------------------------------------------------------|
F#|------------------------------------------------------------------|
D |------------------------------------------------------------------|
A |------------------------------------------------------------------|
E |---------33333333--------55555555--------33333333-----------------|
B |-22222222--------44444444--------22222222--------4444444422222222-|

Before riff C, play this as the last bar:

B |------------------------------------------------------------------|
F#|------------------------------------------------------------------|
D |------------------------------------------------------------------|
A |------------------------------------------------------------------|
E |---------33333333--------55555555--------333333335-------3--------|
B |-22222222--------44444444--------22222222--------3-------1--------|

Riff C

B |-----------------------------------------------------------------|
F#|-----------------------------------------------------------------|
D |-----------------------------------------------------------------|
A |-----------------------------------------------------------------|
E |-2--------------/7---------------4---------------6-------4-------|
B |-0-----------------------8-7-----2---------------4-------4-------|

I'm not even going to write the structure because it's so easy. If I can decipher the 
by listening, you can learn the structure by listening.

I only tabbed this because my band's guitarist wanted to cover it and as he opted to 
the solo, I didn't bother. I might add it later though.
Related for Kicked To Death tab