Song name
# A B C D E F G H I J K L M N O P Q R S T U V W X Y Z

Lord Gore - Nekro Erotic Art tab

Help us improve GuitareTab! Take a short survey!
Lord Gore - Nekro Erotic Art

Tabbed by Jorge. xlos_crudos4x@yahoo.com

 riff 1
|--------------------------------------------------------------|
|--------------------------------------------------------------|
|--------------------------------------------------------------|
|--------------------------------------------------------------|
|-2------5\8-7-5-2------5\8-7-5-2------5\8-7-5--3-3--3--6-6--6-|
|-0-0000-3\6-5-3-0-0000-3\6-5-3-0-0000-3\6-5-3--1-1--1--4-4--4-|
    ....           ....           ....   


 riff 2
|---------------------------------|
|---------------------------------|
|---------------------------------|
|---------------------------------|
|-2--5-4--2--8-7--2--5-4--3-3-4-4-|
|-0--3-2--0--6-5--0--3-2--1-1-2-2-|
                          . . . . 


 riff 3
|-----------------------------------------|
|-----------------------------------------|
|-----------------------------------------|
|-----------------------------------------|
|-----------------------------------------|
|-0"--3"-2"--0"--6"-5"--0"--3"-2"--1"--2"-|



 riff 4
|----------------------------------------------------------------------|
|----------------------------------------------------------------------|
|----------------------------------------------------------------------|
|----------------------------------------------------------------------|
|--------------------------------------------------------3-3--3-6-6--6-|
|-0"----3"-6"-5"-3"-0"----3"-6"-5"-3"-0"----3"-6"-5"-3"--1-1--1-4-4--4-|
 .....................................................



 End 
|----|
|----|
|----|
|----|
|-2--|
|-0--|
Related for Nekro Erotic Art tab