Song name
# A B C D E F G H I J K L M N O P Q R S T U V W X Y Z

Lord Huron - I Will Be Back One Day chords

Capo 2, based on live performances.

Intro bit (This is relevant to the nut, not capo!):
E|--14--14r12----------12h14h16r14--12---------------------------------------------|
B|-------------14--14-------------------14----12--12h14----------12h14r12----------|
G|-------------------------------------------------------14--14------------14--14--|
D|---------------------------------------------------------------------------------|
A|---------------------------------------------------------------------------------|
E|---------------------------------------------------------------------------------|

Chords:
  Cmaj7  G    D  EmAdd9 (What I'm calling it, anyway)
E|--2----2----2----2--|
B|--0----0----3----0--|
G|--0----0----2----0--|
D|--1----0----0----2--|
A|--2----1----0----2--|
E|--0----2----X----0--|

Whenever you see a "(EmAdd9 or Cmaj7)", it means you can use either. The EmAdd9 sounds 
closer but they are both close.

Cmaj7 G Cmaj7 G, (EmAdd9 or Cmaj7) G Cmaj7 G

Cmaj7       G       Cmaj7      G
I wanna live in the land of lakes
Where the great waves break
And the night runs right into the day
I wanna be with ones I left
But I'm way out west
And the years keep on slipping away
I wanna run on the sacred dunes
Through the ancient runes
Where the fires of my ancestors burned
I remember that fateful day
When I ran away
And you told me to never return


D (Hold)
You made me swear I'd never forget
Cmaj7 G Cmaj7 G
D (Hold)
I made a vow I'd see you again
Cmaj7 G Cmaj7 G
I will be back one day
(EmAdd9 or Cmaj7) G Cmaj7 G
And I'll find you there by the great big lake


Cmaj7 G Cmaj7 G, (EmAdd9 or Cmaj7) G Cmaj7 G, can sing the "Hey" to the tune as on the 
recording if desired.


Cmaj7 G Cmaj7 G
I been running a long, long time
Trying to flee that life
But I can't seem to leave it behind
Wanna visit the windswept shores
Of a time before
When the moon and the stars were aligned
I remember the bright spring day
When you sparked that flame
And a fire that continues to burn
I remember the day I left
Headin' way out west
When you told me to never return


D (Hold)
You made me swear I'd never forget
Cmaj7 G Cmaj7 G
D (Hold)
I made a vow I'd see you again
Cmaj7 G Cmag7 G
I will be back one day
(EmAdd9 or Cmaj7) G Cmaj7 G
And I'll find you there by the great big lake


Cmaj7 G Cmaj7 G, (EmAdd9 or Cmaj7) G Cmaj7 G, can sing the "Hey" to the tune again.

End on a Cmaj7 with a dive on a whammy if you have it.

Enjoy!
Tap to rate this tab
# A B C D E F G H I J K L M N O P Q R S T U V W X Y Z