Song name
# A B C D E F G H I J K L M N O P Q R S T U V W X Y Z

Lorde - Royals tab

certain notes aren't played in the actual song but I personally think they sound nice so 
i put them in bracket so you dont need to play them if you dont want to

e-----------------------------------------------------------------------|
B-----------------------------------------------------------------------|
G-----------7-7-5-5------------7-7-5-5--------------------7-7-5-5-7-5---|
D-7-7-7-7-7---------7----7-7-7---------7--5-7-5-4---7-7-7-------------7-|
A-----------------------------------------------------------------------|
E-----------------------------------------------------------------------|

e--------------------------------------------------------------------------|
B-------8-7-----8-7------------7------------7-7-7-7------------7-7-7-7-----|
G-7-7-7-----7-7-----9-7--7-7-9---9-7----7-7---------7-7----7-7---------7-7-|
D------------------------------------7-7----------------7-7----------------|
A--------------------------------------------------------------------------|
E--------------------------------------------------------------------------|

e--------------------------------------------------------------------|
B--------------------------------------7-------------7-7-7-7---------|
G--------------------------------7-7-9---9-7-----7-7---------7-7-----|
D-10-9-10---10-10-10-9-9-9-9-7---------------7-7-----------------7-7-|
A------------------------------10------------------------------------|
E--------------------------------------------------------------------|

e---------------------------------------------------------------------14-10-|
B---------7-7-7-7---------------------------------------------7-10-7--------|
G-----7-7---------7-7--------9-7-9-5-5----------------7-7-7-9---------------|
D-7-7-----------------7-7--------------9-9-9-9-9-7--5-----------------------|
A---------------------------------------------------------------------------|
E---------------------------------------------------------------------------|

e------------------------------------------------------------|
B-7-7-7-7-7-8-10-(10)-(8)-(7)--------------(7)-(8)-----------|
G-----------------------------9-9-9-7-9-(9)--------7-7-7-5---|
D----------------------------------------------------------7-|
A------------------------------------------------------------|
E------------------------------------------------------------|

e----------------14-10---------------------------------------------------|
B---------7-10-7-------7-7-7-7-7-8-10--10-10-10-10-8(let ring)-----------|
G-7-7-7-9----------------------------------------------7-7-10-10-10-9-7--|
D------------------------------------------------------------------------|
A------------------------------------------------------------------------|
E------------------------------------------------------------------------|


e----------------------------------------------------------------------------|
B----------------------------------------------------------------8-7---------|
G-----------7-7-5-5------------7-7-5-5--------------------7-7-9-----9-7------|
D-7-7-7-7-7---------7----7-7-7---------7--5-7-5-4---7-7-7---------------9-7--|
A----------------------------------------------------------------------------|
E----------------------------------------------------------------------------|


e--------------------------------------------------------------------------|
B-------8-7-----8-7------------7------------7-7-7-7------------7-7-7-7-----|
G-7-7-7-----7-7-----9-7--7-7-9---9-7----7-7---------7-7----7-7---------7-7-|
D------------------------------------7-7----------------7-7----------------|
A--------------------------------------------------------------------------|
E--------------------------------------------------------------------------|


e---------------------------------------------------------------------|
B---------------------------------------7-------------7-7-7-7---------|
G---------------------------------7-7-9---9-7-----7-7---------7-7-----|
D-10-9-10---10-10-10-9-9-9-9-7---------------7-7-----------------7-7--|
A-------------------------------10------------------------------------|
E---------------------------------------------------------------------|


e---------------------------------------------------------------------14-10-|
B---------7-7-7-7---------------------------------------------7-10-7--------|
G-----7-7---------7-7--------9-7-9-5-5----------------7-7-7-9---------------|
D-7-7-----------------7-7--------------9-9-9-9-9-7--5-----------------------|
A---------------------------------------------------------------------------|
E---------------------------------------------------------------------------|


e---------------------------------------------------------------|
B-7-7-7-7-7-8-10-(10)-(8)-(7)--------------(7)-(8)--------------|
G-----------------------------9-9-9-7-9-(9)--------7-7-7-5------|
D----------------------------------------------------------7----|
A---------------------------------------------------------------|
E---------------------------------------------------------------|


e----------------14-10-------------------------------------------------------|
B---------7-10-7-------7-7-7-7-7-8-10--10-10-10-10-8(let ring)---------------|
G-7-7-7-9-------------------------------------------------7-7-10-10-10-9-7---|
D----------------------------------------------------------------------------|
A----------------------------------------------------------------------------|
E----------------------------------------------------------------------------|


e--------------------------------------------------------------------------|
B------------------10-8-----------------------------------------10p8h10-8--|
G-/11-9-7----/11-9-7------9-7-5--------------/11-9-7----/11-9-7------------|
D------------------------------/9-9-9-9-9-7-5------------------------------|
A--------------------------------------------------------------------------|
E--------------------------------------------------------------------------|

e-----------------------------------------14-10------------------------------|
B----------------------------------7-10-7-------7-7-7-7-7-8-10-(10-----------|-(8)-(7)
G-9-7-5--5-5---------------7-7-7-9-------------------------------------------|
D------------9-9-9-9-9-7-5---------------------------------------------------|
A----------------------------------------------------------------------------|
E----------------------------------------------------------------------------|

e--------------------------------------------14-10--------------------------------|
B--------------(7)-(8)-----------------7-10-7--------7-7-7-7-7-8-10-10-10-10-10-8-|
G-9-9-9-7-9-(9)--------7-7-7-5-7-7-7-9--------------------------------------------|
D------------------------------7--------------------------------------------------|
A---------------------------------------------------------------------------------|
E---------------------------------------------------------------------------------|

e----------------------------------------------------------------------|
B----------------------------------------------------------------------|
G-7-7-10-10-10-9-7-----------------------------------------------------|
D----------------------------------------------------------------------|
A----------------------------------------------------------------------|
E----------------------------------------------------------------------|
Tap to rate this tab
 
# A B C D E F G H I J K L M N O P Q R S T U V W X Y Z