Song name
# A B C D E F G H I J K L M N O P Q R S T U V W X Y Z

Lorde - Royals tab

E-|--------|--------|--------|--------|--------|--------|--------|-------3|-2------|
B-|--------|-3-3-1-1|--------|-----3-3|-1-1----|-----3-3|-1-1----|-3-3-3--|---3-3-3|
G-|-2-2-2-2|--------|-2------|-2-2----|-----2--|-2-2----|-----2--|--------|--------|
D-|--------|--------|--------|--------|--------|--------|--------|--------|--------|
A-|--------|--------|--------|--------|--------|--------|--------|--------|--------|
E-|--------|--------|--------|--------|--------|--------|--------|--------|--------|

E-|-3-2-0--|--------|-2-2-2-2|--------|-----2-2|-2-2----|-0-0-0--|
B-|-------3|-----3-3|--------|-3-3----|-3-3----|-----3-3|-------3|
G-|--------|-2-2----|--------|-----2-2|--------|--------|--------|
D-|--------|--------|--------|--------|--------|--------|--------|
A-|--------|--------|--------|--------|--------|--------|--------|
E-|--------|--------|--------|--------|--------|--------|--------|

E-|--------|--------|-------0|-2-5-2--|-2---2-2|-2-2-3-5|-3-3-2-0|---0---0|-3-3-2-0|
B-|-3-3-3-3|-3-1----|-3-3-3--|--------|---3----|--------|--------|-3---3--|--------|
G-|--------|-----2--|--------|--------|--------|--------|--------|--------|--------|
D-|--------|--------|--------|--------|--------|--------|--------|--------|--------|
A-|--------|--------|--------|--------|--------|--------|--------|--------|--------|
E-|--------|--------|--------|--------|--------|--------|--------|--------|--------|

E-|---0----|-------0|-2-5-2--|-2---2-2|-2-2-3-5|-3-5-5-5|--------|-1-1-1-0|--------|
B-|-3---3-3|-3-3-3--|--------|---3----|--------|--------|-8--3-3-|--------|-3------|
G-|--------|--------|--------|--------|--------|--------|--------|--------|--------|
D-|--------|--------|--------|--------|--------|--------|--------|--------|--------|
A-|--------|--------|--------|--------|--------|--------|--------|--------|--------|
E-|--------|--------|--------|--------|--------|--------|--------|--------|--------|
 
repeat this tab twice and you will have the whole song of royals!

Hope this tab was helpful to you!!!   
Tap to rate this tab
# A B C D E F G H I J K L M N O P Q R S T U V W X Y Z