Song name
# A B C D E F G H I J K L M N O P Q R S T U V W X Y Z

Lordi - Dr Sin Is In tab

e-------------------------------------------------------------|
B-------------------------------------------------------------|
G-------------------------------------------------------------|
D-5-7-7-5--5-7-7-5--5-7-7-5--5-7-7-5--5-7-7-5-----------------|
A-3-5-5-3--3-5-5-3--3-5-5-3--3-5-5-3--3-5-5-3-5h7p5h7p5h7p5h7-|
E-------------------------------------------------------------|

e-------------------------------------------------|
B-------------------------------------------------|
G-------------------------------------------------|
D----------------------------------5--------------|
A-7--5--7--5-555-5-5-5-555-5-5-5-7-3--------------|
E-5--3--5--3-333-3-3-3-333-3-3-3-5----------------|

This is all i got at the moment. Drop me a comment and even help me figure out some of 
fills and what not.
-The Undead One
Tap to rate this tab
# A B C D E F G H I J K L M N O P Q R S T U V W X Y Z