Song name
# A B C D E F G H I J K L M N O P Q R S T U V W X Y Z

Lordi - Monster Keep Me Company tab

Hi,
Yep, im tabbing this song.
Its easy, but the solo is tricky >:)
Email: maxlattka (at) gmx.de

* = PM  ( (*) is possible)
^ = Bend
h = hammer on
p = pull off


Intro
-not 100% tabbed ;P
-you can play the verse part instead

Verse

e|-----------------------------------|
B|-----------------------------------|
G|-----------------------------------|
D|-7--7--7--7---6--6--6--6-----------|  2x
A|-7--7--7--7---6--6--6--6-----------|
E|-5--5--5--5---4--4--4--4-----------|
  (*) *  *  *  (*) *  *  * 
e|-----------------------------------|
B|-----------------------------------|
G|-----------------------------------|
D|-3--3--3--3---5--5--5--5-----------|
A|-3--3--3--3---5--5--5--5-----------|
E|-1--1--1--1---3--3--3--3-----------|
  (*) *  *  *  (*) *  *  *
e|-----------------------------------|
B|-----------------------------------|
G|-----------------------------------|
D|-3-3---5-5------7------------------|
A|-3-3---5-5------7------------------|
E|-1-1---3-3------5------------------|
   * *   * *     (*)
&repeat


Pre Chorus

e|-------------------------------------------|
B|-------------------------------------------|
G|-------------------------------------------|
D|--7--7--7----5--7----7--10---7--10---12--10|
A|--7--7--7----5--7----7--10---7--10---12--10|
E|--5--5--5----3--5----5--8----5--8----10--8-|
    *  *  *    *  *    *  *    *  *    *   *

e|-----------------------------------|
B|-----------------------------------|
G|-----------------------------------|
D|-7--10--9-----10--9----------------|
A|-7--10--9-----10--9----------------|
E|-5--8---7-----8---7----------------|


Chorus

e|------------------------------------------|
B|------------------------------------------|
G|------------------------------------------|
D|-7--7--7-----7--5--3-----3--3--3-----5--7-|    2x
A|-7--7--7-----7--5--3-----3--3--3-----5--7-|
E|-5--5--5-----5--3--1-----1--1--1-----3--5-|
      *  *                    *  *
e|-----------------------------------|
B|-----------------------------------|
G|-----------------------------------|
D|--8---10--7------------------------|
A|--8---10--7------------------------|
E|--6---8---5------------------------|

Ill realese soon here the solo and the outro...
Hope you like it :)
Tap to rate this tab
# A B C D E F G H I J K L M N O P Q R S T U V W X Y Z