Song name
# A B C D E F G H I J K L M N O P Q R S T U V W X Y Z

Lordi - Kids Who Wanna Play With The Dead tab

Lordi- The Kids who wanna play with the Dead [Solo]

Standard Tuning

/=Slide up to
~= Vibrato

Easy solo, good for beginners and sounds pretty sweet too

e|-----------------------------------------|------------------------------------------|
B|-----------------------------------------|------------------------------------------|
G|--------------5-----------5--------------|---------------5-----------5--------------|
D|/7-5-7-/9-7-9---9-7-9-7-5---9-7-9-7-5-7~-|-/7-5-7-/9-7-9---9-7-9-7-5---9-7-9-7-5-7~-|
A|-----------------------------------------|------------------------------------------|
E|-----------------------------------------|------------------------------------------|

e|-----------------------------------------|-----------------------------|
B|--------------6-----------6--------------|--------------6-------6 7 8~-|
G|-/7-5-7-9-7-9---9-7-9-7-5---9-7-9-7-5-7~-|-/7-5-7-9-7-9---9-7-9--------|
D|-----------------------------------------|-----------------------------|
A|-----------------------------------------|-----------------------------|
E|-----------------------------------------|-----------------------------|

Tabbed by [Azrael], any questions or corrections to not.dead.enough@googlemail.com
Tap to rate this tab
# A B C D E F G H I J K L M N O P Q R S T U V W X Y Z