Song name
# A B C D E F G H I J K L M N O P Q R S T U V W X Y Z

Lordi - Man Skin Boots tab

Help us improve GuitareTab! Take a short survey!
Song: Man Skin Boots
Band: Lordi
Tabbed by: unspeakable.elvis@gmail.com

Dropped D tuning (low to high: D A D G B E)

Legend:
.       palm mute
h       hammer on
p       pull off
/       slide up to note
\       slide down from note
7b9     bend 7th fret major second up
9r7     release previous bend
~       vibrato
(n)     ghost note


Intro
~~~~~

|-------------------------------------------------|
|-------------------------------------------------|
|-------------------------------------------------|
|-------------------------------------------------|
|-7--6--5--7--6--5--7--6--5--7--6--5--7--6--5-----|
|-7--6--5--7--6--5--7--6--5--7--6--5--7--6--5-----|


|-------------------------------------------------|
|-------------------------------------------------|
|-------------------------------------------------|
|-------------------------------------------------|
|-7--6--5--7--6--5--7--6--5--7--6--5--7--6-----5--|
|-7--6--5--7--6--5--7--6--5--7--6--5--7--6-----5--|


Verse
~~~~~

 "take a step back..."
|-------------------------------------------------|
|-------------------------------------------------|
|-------------------------------rest--------------|
|-------------------------------------------------|
|-7\----------------------------------------------|
|-7\----------------------------------------------|

 "beware what you're saying..."
|-------------------------------------------------|
|-------------------------------------------------|
|--------rest-------------------------------------|
|----------------------------------------5--7\----|
|-------------------------3--5-----6-----------5--|
|----------------------------------------------5--|

 "you're like a frog in the road..."
|-------------------------------------------------|
|-------------------------------------------------|
|-------------------------------rest--------------|
|-------------------------------------------------|
|-7\----------------------------------------------|
|-7\----------------------------------------------|

 "studded tired are flaying...
|-------------------------------------------------|
|-------------------------------------------------|
|--------rest-------------------------------------|
|----------------------------------------5--7\----|
|-------------------------3--5-----6--------------|
|-------------------------------------------------|



Bridge (counts included... just because)
~~~~~~
 "you tried it with a knife and rope..."      "dy-"
  1  &  2  &  3  &  4  &  1  &  2  &  3  &  4  &
|-------------------------------------------------|
|-------------------------------------------------|
|-------------------------------------------------|
|-7--7--7--7--5--5--5--5--4--4--4--4--------------|
|-5--5--5--5--3--3--3--3--2--2--2--2--3-----5--7--|
|-------------------------------------3-----5--7--|
  .  .  .  .  .  .  .  .  .  .  .  .

"na-mite..."
  1  &  2  &  3  &  4  &  1  &  2  &  3  &  4  &
|-------------------------------------------------|
|-------------------------------------------------|
|-------5-----5--7--5-----5--7--5-----------------|
|-------5-----5--7--5--7--5--7--5--7-----3--------|
|(7)-7-----------------7-----------7-----3--------|
|(7)-7-----------------------------------3--------|
  ^ ghost notes not actually played, intended to show that
    the chord is being held from the previous measure.

 "you tried it by cutting the wires..."
|-------------------------------------------------|
|-------------------------------------------------|
|-------------------------------------------------|
|-7--7--7--7--5--5--5--5--4--4--4--4--------------|
|-5--5--5--5--3--3--3--3--2--2--2--2--3-----5--7--|
|-------------------------------------3-----5--7--|
  .  .  .  .  .  .  .  .  .  .  .  .

 "she's so out of your league...       she wears..."
|-------------------------------------------------|
|-------------------------------------------------|
|-------------------------------------------------|
|-------------------------------------------------|
|(7)-7--7--7--3-----3--5--------------5-----5-----|
|(7)-7--7--7--3-----3--5--------------5--5--5-----|
                                         .

Chorus Pt. 1
~~~~~~~~~~~~

"man skin boots, no she's not gonna please you..."
|-------------------------------------------------|
|-------------------------------------------------|
|-------------------------------------------------|
|-------------------------------------------------|
|-7--7-----7--------7-----0--0-----0--------0-----|
|-7--7--7--7--7--7--7--7--0--0--0--0--0--0--0--0--|
        .     .  .     .        .     .  .     .

"not gonna tease you..."
|-------------------------------------------------|
|-------------------------------------------------|
|-------------------------------------------------|
|-------------------------------------------------|
|-3--3-----3--------3-----5-----5-----5-----5-----|
|-3--3--3--3--3--3--3--3--5--5--5--5--5--5--5-----|
        .     .  .     .     .     .     .

Chorus Pt. 2
~~~~~~~~~~~~

"MAN!...               SKIN!...               BOOTS!"
|-------------------------------------------------|
|-------------------------------------------------|
|-------5-----5-----------------5--7--5-----------|
|-------5-----5--7--------------5--7--5--7--------|
|-7\-------------7-----7\----------------7-----7\-|
|-7\-------------------7\----------------------7\-|


      "she's walking in   man skin boots..."
|-------------------------------------------------|
|-------------------------------------------------|
|-------5-----5-----------5--5-----7-----8--7--5--|
|-------5-----5--7--7-----5--5-----7-----8--7--5--|
|----------------7--7-----------------------------|
|-------------------------------------------------|


"MAN!...               SKIN!...               BOOTS!"
|-------------------------------------------------|
|-------------------------------------------------|
|-------5-----5-----------------5--7--5-----------|
|-------5-----5--7--------------5--7--5--7--------|
|-7\-------------7-----7\----------------7-----7\-|
|-7\-------------------7\----------------------7\-|


                         First time end of chorus
|-------------------------------------------------|
|-------------------------------------------------|
|----------rest-----------------------------------|
|----------------------------------------5--7\----| Back to Verse
|-------------------------3--5-----6-----------3--|
|----------------------------------------------3--|


Solo Rhythm 1
~~~~~~~~~~~~~

|-------------------------|
|-------------------------|
|-------------------------|
|-------------------------| Play x4
|-4--------4-----4--4-----|
|-4-----4--4--4--4--4--4--|
        .     .        .

Lead with Solo Rhythm 1
~~~~~~~~~~~~~~~~~~~~~~~

|-------------------------|-------------------------|
|-7-----------------------|-9-----------------------|
|-9b11--------------------|-11b13-------------------|
|-------------------------|-------------------------|
|-------------------------|-------------------------|
|-------------------------|-------------------------|


|-------------------------|-------------------------|
|-10----------------------|-12----------------------|
|-12b14-------------------|-14b16-------------------|
|-------------------------|-------------------------|
|-------------------------|-------------------------|
|-------------------------|-------------------------|


Solo Rhythm 2
~~~~~~~~~~~~~

|-------------------------------------------------|
|-------------------------------------------------|
|-------------------------------------------------|
|-4-----------2-----------------------------------|
|-2-----------0-----------6-----------5-----------|
|-------------------------6-----------5-----------|


|-------------------------------------------------|
|-------------------------------------------------|
|-------------------------------------------------| Play x2
|-------------------------------------------------|
|-------------------------------------------------|
|-4--3--2--4--3--2--4--3--2--4--3--2--4--3--2-----|


Lead with Solo Rhythm 2
~~~~~~~~~~~~~~~~~~~~~~~

strike these notes while bent
        V   V   V 
|------------------------------------------------------------------|
|-11b12-b12-b12-b12--9b10-b10-b10-b10--8b9-b9-b9-b9--7b8-b8-b8-b8--|
|------------------------------------------------------------------|
|------------------------------------------------------------------|
|------------------------------------------------------------------|
|------------------------------------------------------------------|

  Fast pull-offs!
|-----------------------------------|----------------------------------|
|-7p0-----7p0-----10p0-----10p0-----|-10p0-----10p0-----10p0-----10~~~-|
|-----9p0-----9p0------9p0------9p0-|------9p0------9p0------9p0-------|
|-----------------------------------|----------------------------------|
|-----------------------------------|----------------------------------|
|-----------------------------------|----------------------------------|


|--------------------------|--------------------------|
|/12-12-12-12-/14-14-14-14-|/15-15-15-15-/17-17-17-17-|
|--------------------------|--------------------------|
|--------------------------|--------------------------|
|--------------------------|--------------------------|
|--------------------------|--------------------------|


|-17p14p12----17p14p12----17p14p12----17p14p12----|
|----------12----------12----------12----------12-|
|-------------------------------------------------|
|-------------------------------------------------|
|-------------------------------------------------|
|-------------------------------------------------|


|-17p14p12----17p14p12----12p14p12----14~~~-------|
|----------12----------12----------12-------------|
|-------------------------------------------------|
|-------------------------------------------------|
|-------------------------------------------------|
|-------------------------------------------------|



After solo:
~~~~~~~~~~~

"one true alpha female puts you on the level..."
|-------------------------------------------------|
|-------------------------------------------------|
|-------------------------------------------------| Play x4
|-------------------------------------------2-----|
|-------4-----4--------4-----4--------4-----0-----|
|-4--4--4--4--4--4--4--4--4--4--4--4--4--4--------|
  .  .     .     .  .     .     .  .     .


 "man...               skin..."
|-------------------------------------------------|
|-------------------------------------------------|
|-------------------------------------------------| Guitar left
|-------------------------------------------------|
|-------------------------------------------------|
|-2--------------------------------------2--3--4--|
|                                                 |
|-------------------------------------------------|
|-------------------------------------------------|
|-------------------------------------------------| Guitar right
|-------------------------------------------------|
|-------------------------------------------------|
|-2--2--2--2--2--2--2--2--2--2--2--2--2--2--3--4--|
  .  .  .  .  .  .  .  .  .  .  .  .  .  .  .  .


 "boots...                            she's wearing..."
|-------------------------------------------------|
|-------------------------------------------------|
|-------------------------------------------------| Guitar left
|-------------------------------------------------|
|-------------------------------------------------|
|(4)----------------------------------------------|
|                                                 |
|-------------------------------------------------|
|-------------------------------------------------|
|-------------------------------------------------| Guitar right
|-------------------------------------------------|
|-------------------------------------------------|
|-4--4--4--4--4--4--3--2--4--3--2--4--3--2--4--3--|
  .  .  .  .  . 


 "man...             skin...                   boots..."
|-------------------------------------------------|
|-------------------------------------------------|
|-------------------------------------------------| Guitar left
|-------------------------------------------------|
|----------------------------------------------4--|
|-2--------------------------------------2--3--4--|
|                                                 |
|-------------------------------------------------|
|-------------------------------------------------|
|-------------------------------------------------| Guitar right
|-------------------------------------------------|
|----------------------------------------------4--|
|-2--2--2--2--2--2--2--2--2--2--2--2--2--2--3--4--|
  .  .  .  .  .  .  .  .  .  .  .  .  .  .  .   



|-------------------------------------------------|
|-------------------------------------------------|
|------------------rest---------------------------|
|-------------(man skin boots?)-------------------|
|-------------------------------------------------|
|-------------------------------------------------|
|                                                 |
|-------------------------------------------------|
|-------------------------------------------------|
|------------------rest---------------------------|
|-------------------------------------------------|
|-------------------------------------------------|
|-------------------------------------------------|


Back to Chorus Pt. 1 (played twice), then play Chorus Pt. 2
with the following lead bits over it:

Lead bits over final Chorus
~~~~~~~~~~~~~~~~~~~~~~~~~~~

|------------------------------------------------|
|-13----------12----------10---------------------|
|-15b17-------14b16-------12b14------------------|
|------------------------------------------------|
|------------------------------------------------|
|------------------------------------------------|


|------------------------------------------------|
|-13----------15----------10---------------------|
|-15b17-------17b19-------12b14------------------|
|------------------------------------------------|
|------------------------------------------------|
|------------------------------------------------|


|------------------------------------------------|
|-13----------12----------10---------------------|
|-15b17-------14b16-------12b14------------------|
|------------------------------------------------|
|------------------------------------------------|
|------------------------------------------------|


|-------------12---------------------------------|
|-13----------15b17------------------------------|
|-15b17------------------------------------------|
|------------------------------------------------|
|------------------------------------------------|
|------------------------------------------------|

End!
Related for Man Skin Boots tab