Song name
# A B C D E F G H I J K L M N O P Q R S T U V W X Y Z

Lordi - Children Of The Night chords

Highlighted       Show chord diagrams
(In the part where the singing is soft you can play the low E string before the F chord)


Am                        F                              Am
I hid them under the floor; for they being here made me sore
                              G
And on that day I felt kinda hazy 
Am                            F                            Am
Now they still gotta be there, ´cos they're not going anywhere
                                  G
With severed limbs - or call me crazy?
F                            G
But there are voices in the darkness 
       F                          G
In my house every time I close my eyes

        Am              F                  C              G           
In the dead of night I hear 'em sigh the children of the night are calling
 Am                 F        C            G                 Am   G      F
Hear ´em cry they still defy endlessly I feel like falling now they're all
     E              Am     F-C-G
My children of the night

Am-F-C-E

Am                        F                          Am
These skulls are so small; here are seven of them in all
                                    G
I swear to god, now they're deadly silence
F                              G
But still there voices in the darkness,
F                       G
getting louder all the time

        Am              F                  C              G           
In the dead of night I hear 'em sigh the children of the night are calling
 Am                 F        C            G                 Am       G   F  
Hear ´em cry they still defy endlessly I feel like falling now they're all
     E             
My children of the...

F                                        Am
Now little feet tap at the end of my bed
remorse I seize
F                                           E
I feel there's someone leaning over my head
7 breaths, they freeze!

Am-F-C-G (x2)   (or play solo posted at the end)
Am-F-E

        Cm              G#                  D#             Fm
In the dead of night I hear them sigh The Children of the night are calling
   Cm               G#       D#           Fm
I hear a cry they still defy endlessly I feel like falling 
        Cm              G#                  D#             Fm
In the dead of night I hear them sigh The Children of the night are calling
   Cm               G#       D#           Fm               Cm
I hear a cry they still defy endlessly I feel like falling on the road
     G*             Cm
My children of the night

e|------------------10-----------------------12~~12~~11b/12-----------------------|
B|-10---12-12---13-------13-12-13---12-13-----------------------------------------|
G|--------------------------------------------------------------------------------|
D|--------------------------------------------------------------------------------|
A|--------------------------------------------------------------------------------|
E|--------------------------------------------------------------------------------|

e|-12-12-12-12--11--10-10-------------10------------------------------------------|
B|-------------------------13---12-13------13-12--13-12---------------------------|
G|--------------------------------------------------------------------------------|
D|--------------------------------------------------------------------------------|
A|--------------------------------------------------------------------------------|
E|--------------------------------------------------------------------------------|

e|--------------------------------------------------------------------------------|
B|-10-8-10~-10-12-13---12-10----9-9-9-9-9-9-9-9-----------------------------------|
G|--------------------------------------------------------------------------------|
D|--------------------------------------------------------------------------------|
A|--------------------------------------------------------------------------------|
E|--------------------------------------------------------------------------------|

e|--12-12-12-12-12-12-------------------------------------------------------------|
B|--------------------------------------------------------------------------------|
G|--------------------------------------------------------------------------------|
D|--------------------------------------------------------------------------------|
A|--------------------------------------------------------------------------------|
E|--------------------------------------------------------------------------------|
Tap to rate this tab
# A B C D E F G H I J K L M N O P Q R S T U V W X Y Z