Song name
# A B C D E F G H I J K L M N O P Q R S T U V W X Y Z

Lordi - Discoevil tab

Tabbed by AcousticMetal99

Certain this is in standard tuning, and fairly sure what I've got is right. Not 
sure on the chorus, so if anyone could adjust that in the corrections, or in a new 
tab that'd be great!

However, this is pretty much right - you just need to listen to it to get exactly 
when the bass/guitar plays.



INTRO
e|------------------------------------|
B|------------------------------------|
G|------------------------------------|
D|------------------------------------|
A|--0-0-6\5--3-5-3----0-0-6\5--3-5-3--|
E|--0-0-6\5--3-5-3----0-0-6\5--3-5-3--|  x8

This is as the verse enters:
(bass for 4 bars)


VERSE (played on bass, but done here palm muted)
e|----------------------------------------------------------|
B|----------------------------------------------------------|
G|----------------------------------------------------------|
D|----------------------------------------------------------|
A|----------------------------------------------------------|
E|--0-0----0-0-------------------------0-0----0-0-----------|
    . .    . .                         . .    . .
               Sneaking out.. Saturday night

e|-------------------------------------------------|
B|-------------------------------------------------|
G|-------------------------------------------------|
D|-------------------------------------------------|
A|-------------------------------------------------|
E|-------1-1----1-1-----------3-3----3-3-----------|
         . .    . .           . .    . .
..from right....     ...the window

e|--------------------------------------------------|
B|--------------------------------------------------|
G|--------------------------------------------------|
D|--------------------------------------------------|
A|--------------------------------------------------|
E|--0-0----0----0--------5-5------5-5---------------|
    . .    .    .        . .      . .          


e|-------------------------------------------------|
B|-------------------------------------------------|
G|-------------------------------------------------|
D|-------------------------------------------------|
A|-------------------------------------------------|
E|-------5-5----5-5-----------1-1----1-1-----------|
         . .    . .           . .    . .

e|--------------------------|
B|--------------------------|
G|--------------------------|
D|--------------------------|
A|--------------------------|
E|-------3-3----3-3---------|
         . .    . .    

e|-------------------------------------------------|
B|-------------------------------------------------|
G|-------------------------------------------------|
D|-------------------------------------------------|
A|-------2-2----2/7-----------2-2----2/7-----------|
E|-------0-0----0/5-----------0-0----0/5-----------|
         . .    . .           . .    . .    

e|---------------------------------------|
B|---------------------------------------|
G|---------------------------------------|
D|---------------------------------------|
A|-------2--2--2--2--2--2----2~~---------|
E|-------0--0--0--0--0--0----0~~---------|
 

CHORUS  x2
e|---------------------------------------|
B|---------------------------------------|
G|---------------------------------------|
D|---7-7-7-7-3-3-3-3-5-5-5-5-5-5-5-5-----|
A|---7-7-7-7-3-3-3-3-5-5-5-5-5-5-5-5-----|
E|---5-5-5-5-1-1-1-1-3-3-3-3-3-3-3-3-----|
     It's Disco Evil - toxic tones

e|---------------------------------------|
B|---------------------------------------|
G|---------------------------------------|
D|---7-7-7-7-3-3-3-3-5-5-5-5-5-5-5-5-----|
A|---7-7-7-7-3-3-3-3-5-5-5-5-5-5-5-5-----|
E|---5-5-5-5-1-1-1-1-3-3-3-3-3-3-3-3-----| 
     It's Disco Evil - grinding bones

e|---------------------------------------|
B|---------------------------------------|
G|---------------------------------------|
D|---3-3-3-3-3-3-3-3-3-3-3-3-1-3-1-3-----|
A|---3-3-3-3-3-3-3-3-3-3-3-3-1-3-1-3-----|
E|---1-1-1-1-1-1-1-1-1-1-1-1-1-1-1-1-----|
     . . . . . . . . . . . . . . . .  
     Flesh sea-ring la---sers....

e|---------------------------------------|
B|---------------------------------------|
G|---------------------------------------|
D|---5-5-5-5-5-5-5-5-5-5-5-5-3-5-3-5-----|
A|---5-5-5-5-5-5-5-5-5-5-5-5-3-5-3-5-----|
E|---3-3-3-3-3-3-3-3-3-3-3-3-3-3-3-3-----|
     . . . . . . . . . . . . . . . .
     Mirror balls with ra--zors....


SOLO
e|-------------------------------------------------|
B|-------------------------------------------------|
G|-----/12-10-9----10-9-7----9-7-5/7~~~------------|
D|-------------------------------------------------|
A|-------------------------------------------------|
E|-------------------------------------------------|
 
e|-----------------------------------------------------------------|
B|-----------------------------------------------------------------|
G|---/7-10---/12-10-9----10-9-7----10-12--13h14h15h16---17~~~------|
D|-----------------------------------------------------------------|
A|-----------------------------------------------------------------|
E|-----------------------------------------------------------------|

e|-----------------------------------15--17b-p15-------------------|
B|---15--15-15--17--17-17--18-18-18--------------17----------------|
G|-----------------------------------------------------------------|
D|-----------------------------------------------------------------|
A|-----------------------------------------------------------------|
E|-----------------------------------------------------------------|

e|----20b-20b-20b-19-17------22b-22b-22b-20-17\--------------------|
B|-----------------------------------------------------------------|
G|-----------------------------------------------------------------|
D|-----------------------------------------------------------------|
A|-----------------------------------------------------------------|
E|-----------------------------------------------------------------|


INTRO RIFF
e|------------------------------------|
B|------------------------------------|
G|------------------------------------|
D|------------------------------------|
A|--0-0-6\5--3-5-3----0-0-6\5--3-5-3--|
E|--0-0-6\5--3-5-3----0-0-6\5--3-5-3--|  x4


BRIDGE
Some distorted chords - can't make them out


CHORUS
e|---------------------------------------|
B|---------------------------------------|
G|---------------------------------------|
D|---7-7-7-7-3-3-3-3-5-5-5-5-5-5-5-5-----|
A|---7-7-7-7-3-3-3-3-5-5-5-5-5-5-5-5-----|
E|---5-5-5-5-1-1-1-1-3-3-3-3-3-3-3-3-----|
     It's Disco Evil - toxic tones

e|---------------------------------------|
B|---------------------------------------|
G|---------------------------------------|
D|---7-7-7-7-3-3-3-3-5-5-5-5-5-5-5-5-----|
A|---7-7-7-7-3-3-3-3-5-5-5-5-5-5-5-5-----|
E|---5-5-5-5-1-1-1-1-3-3-3-3-3-3-3-3-----| 
     It's Disco Evil - grinding bones

e|---------------------------------------|
B|---------------------------------------|
G|---------------------------------------|
D|---3-3-3-3-3-3-3-3-3-3-3-3-1-3-1-3-----|
A|---3-3-3-3-3-3-3-3-3-3-3-3-1-3-1-3-----|
E|---1-1-1-1-1-1-1-1-1-1-1-1-1-1-1-1-----|
     . . . . . . . . . . . . . . . .  
     Flesh sea-ring la---sers....

e|---------------------------------------|
B|---------------------------------------|
G|---------------------------------------|
D|---5-5-5-5-5-5-5-5-5-5-5-5-3-5-3-5-----|
A|---5-5-5-5-5-5-5-5-5-5-5-5-3-5-3-5-----|
E|---3-3-3-3-3-3-3-3-3-3-3-3-3-3-3-3-----|
     . . . . . . . . . . . . . . . .
     Mirror balls with ra--zors....


MODULATED CHORUS
e|-------------------------------------------|
B|-------------------------------------------|
G|-------------------------------------------|
D|---10-10-10-10-6-6-6-6-8-8-8-8-8-8-8-8-----|
A|---10-10-10-10-6-6-6-6-8-8-8-8-8-8-8-8-----|
E|---8--8--8--8--4-4-4-4-6-6-6-6-6-6-6-6-----|
     It's Disco Evil - toxic tones

e|-------------------------------------------|
B|-------------------------------------------|
G|-------------------------------------------|
D|---10-10-10-10-6-6-6-6-8-8-8-8-8-8-8-8-----|
A|---10-10-10-10-6-6-6-6-8-8-8-8-8-8-8-8-----|
E|---8--8--8--8--4-4-4-4-6-6-6-6-6-6-6-6-----|
     It's Disco Evil - grinding bones

e|---------------------------------------|
B|---------------------------------------|
G|---------------------------------------|
D|---6-6-6-6-6-6-6-6-6-6-6-6-4-6-4-6-----|
A|---6-6-6-6-6-6-6-6-6-6-6-6-4-6-4-6-----|
E|---4-4-4-4-4-4-4-4-4-4-4-4-4-4-4-4-----|
     . . . . . . . . . . . . . . . .  
     Flesh sea-ring la---sers....

e|---------------------------------------|
B|---------------------------------------|
G|---------------------------------------|
D|---8-8-8-8-8-8-8-8-8-8-8-8-6-8-6-8-----|
A|---8-8-8-8-8-8-8-8-8-8-8-8-6-8-6-8-----|
E|---6-6-6-6-6-6-6-6-6-6-6-6-6-6-6-6-----|
     . . . . . . . . . . . . . . . .
     Mirror balls with ra--zors....


OUTRO (same as intro)
e|------------------------------------|
B|------------------------------------|
G|------------------------------------|
D|------------------------------------|
A|--0-0-6\5--3-5-3----0-0-6\5--3-5-3--|
E|--0-0-6\5--3-5-3----0-0-6\5--3-5-3--|  x4
Tap to rate this tab
# A B C D E F G H I J K L M N O P Q R S T U V W X Y Z