Song name
# A B C D E F G H I J K L M N O P Q R S T U V W X Y Z

Lordi - Not The Nicest Guy tab

#----------------------------------PLEASE NOTE---------------------------------#
#This file is the author's own work and represents their interpretation of the #
#song. You may only use this file for private study, scholarship, or research. #
#------------------------------------------------------------------------------#

NOT THE NICEST GUY
As recorded by Lordi
(From the 2002 Album GET HEAVY)

Transcribed by Hard 'n' Heavy
	

Words and Music by Lordi
Arranged by Lordi

Gtr I (E A D G B E) - 'Rhythm'
Gtr II (E A D G B E) - 'Lead'

   Intro
    Q=135
    A                                 F             Dm        F5/D
   4/4
    Gtr I
    E E E E Q  E E   E E E E Q  E E   E E E E E E E E   +Q.   Q  E E E
||-----------------|----------------|-----------------|------------------||
||o----------------|----------------|-----------------|-------6---------o||
||-----------------|----------------|-----------------|----------5-------||
||----7------------|---7------------|-----3---------3-|-(3)--------3-----||
||o----------------|----------------|-----------3---5-|-(5)----------5--o||
||--5---3-5----0-3-|-5---3-5----0-3-|-1-----0-1-------|------------------||


   Verse
    $
    A                                 F             Dm        F5/D
    E E E E Q  E E   E E E E Q  E E   E E E E E E E E   +Q.   Q  E E E
||-----------------|----------------|-----------------|------------------||
||o----------------|----------------|-----------------|-------6---------o||
||-----------------|----------------|-----------------|----------5-------||
||----7------------|---7------------|-----3---------3-|-(3)--------3-----||
||o----------------|----------------|-----------3---5-|-(5)----------5--o||
||--5---3-5----0-3-|-5---3-5----0-3-|-1-----0-1-------|------------------||


 Pre-Chorus
  C5         G5         D5   A5   Bb5        F5
                                               PM--|
  W          W          Q.   H    E   +H     E E E E
|----------|----------|-------------|----------------|
|----------|----------|-------------|----------------|
|-5--------|----------|-7---------3-|-(3)------------|
|-5--------|-5--------|-7----7----3-|-(3)----3-------|
|-3--------|-5--------|-5----7----1-|-(1)----3-------|
|----------|-3--------|------5------|--------1-1-1-1-|


  C5         G5         F/Bb5 F/Bb5 F/Bb5   F/Bb5 F/A5C5D5
  W          W          E E E E E E E E   E E E E E E E E
|----------|----------|-----------------|------------------||
|----------|----------|-----------------|------------------||
|-5--------|----------|-----------------|-----------2-5-7\-||
|-5--------|-5--------|-3-3-3-3-3-3-3-3-|-3-3-3-3-3-2-5-7\-||
|-3--------|-5--------|-0-1-1-0-1-1-0-1-|-1-0-1-1-0-0-3-5\-||
|----------|-3--------|-----------------|------------------||


   Chorus
       F5/D  C/D C/D   D5  C/D F5/C5                 A5                  D5
    Q  E E E E E E   E E E E E Q  E   +Q   E E E E E E   +E  E E E E E E E
||-----------------|----------------|------------------|--------------------|
||o----6---6-5---5-|---3---5---6----|------------------|-----------------3--|
||-----5---5-5---5-|---2---5---5--5-|-(5)--5---5-5---2-|-(2)-2-----------2--|
||-----0---0-0---0-|---0---0---0--5-|-(5)--5---5-5---2-|-(2)-2---0-2-0---0--|
||o----------------|--------------3-|-(3)--3---3-3---0-|-(0)-0-3-------3----|
||-----------------|----------------|------------------|--------------------|


                                                         1.
       F5/D  C/D Gm/D             C5
                                              PM  PM              PM  PM
  +Q   E E E E E E   +H.      +E  E   +E  E E E E E E E   +E  E E E E E E E
|------------------|----------------|-------------------|--------------------||
|-(3)--6---6-5-----|----------------|-------------------|-------------------o||
|-(2)--5---5-5---3-|-(3)------(3)---|-----------5-------|-----------5--------||
|-(0)--0---0-0---5-|-(5)------(5)---|-------5-------5---|-------5-------5-0--||
|----------------5-|-(5)------(5)-3-|-(3)-3---3---3---3-|-(3)-3---3---3-----o||
|------------------|----------------|-------------------|--------------------||


                    Guitar Break
  2.
              D.S.
  C5                    G/A C5/A   N.C.                     G/A C5/A
    PM  PM
  E E E E E E E E    Q  E E H      S S S S E E E E E E   Q  E E H
|-----------------||-------------|---------------------|-------------|
|-----------------||-------------|---------------------|-------------|
|---------5-------||----4---5----|---------------------|----4---5----|
|-----5-----------||----5---5----|---------------------|----5---5----|
|-3-3---3---------||----0---0----|-2h3p2-0---0---------|----0---0----|
|-----------0-3-5-||-------------|---------3-----0-3-5-|-------------|


  N.C.                     G   C5/G   N.C.                     G/A C5/D
  S S S S E E E E E E   Q  E E H      S S S S E E E E E E   Q  E E H
|---------------------|-------------|---------------------|-------------|
|---------------------|-------------|---------------------|-------------|
|---------------------|----4---5----|---------------------|----4---5----|
|---------------------|----5---5----|---------------------|----5---5----|
|-2h3p2-0---0---------|-------------|-2h3p2-0---0---------|----0---5----|
|---------3-----0-3-1-|-------------|---------3-----0-3-5-|-------------|


  D5C5/GG   C5/GF5
  Gtr II
  W                  W            E  E E E E   +E  Q
|-----------------|------------|----------------------||
|-----------------|------------|----------------------||
|-----------------|------------|-------5-7-7b9r(7)p5--||
|-----------------|------------|-----7----------------||
|-----------------|------------|----------------------||
|-----------------|------------|----------------------||
|
| Gtr I
| E E E E E E E E   +W           +W
|-----------------|------------|----------------------||
|-----------------|------------|----------------------||
|-7-5---4---5-----|------------|----------------------||
|-7-5---5---5---3-|-(3)--------|-(3)------------------||
|---------------3-|-(3)--------|-(3)------------------||
|---------------1-|-(1)--------|-(1)------------------||


 Guitar Solo
  C5                        G5
  E   E E E   E E E   S S   E   E E E   E E E   E
|-----5-5-----5-5-------5-|-----5-5-----5-5-----5---|
|-----5-5-----5-5-----5---|-----5-5-----5-5-----5---|
|-7b9-----7b9-----7b9-----|-7b9-----7b9-----7b9-----|
|-------------------------|-------------------------|
|-------------------------|-------------------------|
|-------------------------|-------------------------|
|
| W                         W
|-------------------------|-------------------------|
|-------------------------|-------------------------|
|-5-----------------------|-------------------------|
|-5-----------------------|-5-----------------------|
|-3-----------------------|-5-----------------------|
|-------------------------|-3-----------------------|


  D5       A5      Bb5           F5
  E  E E   E E E Q      E  E E Q   E Q
|-5--5-----5---------|---------------------|
|-5--5-----5-8-7-5---|--6--6-5-6-----------|
|------7b9---8-7-5---|--5--5-5-5---7-5b7---|
|--------------------|---------------------|
|--------------------|---------------------|
|--------------------|---------------------|
|
|                                  PM----|
| Q.       H       E   +H        E E E   E
|--------------------|---------------------|
|--------------------|---------------------|
|-7----------------3-|-(3)-----------------|
|-7--------7-------3-|-(3)-------3---------|
|-5--------7-------1-|-(1)-------3---------|
|----------5---------|-----------1-1-1---1-|


  C5                        G5
   Q.      E      +H         Q.      E      +H
|-------------------------|-------------------------|
|--8------10-----(10)-----|-12------13-----(13)-----|
|-10b12---12b14==(12)r----|-14b16---15b17==(15)r----|
|-------------------------|-------------------------|
|-------------------------|-------------------------|
|-------------------------|-------------------------|
|
|  W                         W
|-------------------------|-------------------------|
|-------------------------|-------------------------|
|--5----------------------|-------------------------|
|--5----------------------|--5----------------------|
|--3----------------------|--5----------------------|
|-------------------------|--3----------------------|


  F/A   Bb5         F/A   Bb5         F/A   Bb5
   E     S  S  E     S  S  E     S  S  E     S  S
|----------17----------17----------17----------17-|
|-------17----------17----------17----------17----|
|-19b21-------19b21-------19b21-------19b21-------|
|-------------------------------------------------|
|-------------------------------------------------|
|-------------------------------------------------|
|
|  E     E     E     E     E     E     E     E
|-------------------------------------------------|
|-------------------------------------------------|
|-------------------------------------------------|
|--3-----3-----3-----3-----3-----3-----3-----3----|
|--0-----1-----1-----0-----1-----1-----0-----1----|
|-------------------------------------------------|


        F/A   Bb5         F/A
   E     S  S  E     S  S  E E  E     E
|----------17----------17------17----17----||
|-------17----------17---------20b22-20b22-||
|-19b21-------19b21-------19---------------||
|------------------------------------------||
|------------------------------------------||
|------------------------------------------||
|
|  E     E     E     E     E E  E     E
|------------------------------------------||
|------------------------------------------||
|------------------------------------------||
|--3-----3-----3-----3-----3----3----------||
|--1-----0-----1-----1-----0----0----------||
|------------------------------------------||


   Out-Chorus
       F5/D  C/D       D5  C/D F5/C5                 A5                  D5
    Gtr I
    Q  E E E E E E   E E E E E Q  E   +Q   E E E E E E   +E  E E E E E E E
||-----------------|----------------|------------------|--------------------|
||o----6---6-5---5-|---3---5---6----|------------------|-----------------3--|
||-----5---5-5---5-|---2---5---5--5-|-(5)--5---5-5---2-|-(2)-2-----------2--|
||-----0---0-0---0-|---0---0---0--5-|-(5)--5---5-5---2-|-(2)-2---0-2-0---0--|
||o----------------|--------------3-|-(3)--3---3-3---0-|-(0)-0-3-------3----|
||-----------------|----------------|------------------|--------------------|


       F5/DF5C/D Gm/D             C5
                                              PM  PM
  +Q   E E E E E E   +H.      +E  E   +E  E E E E E E E
|------------------|----------------|-------------------|
|-(3)--6---6-5-----|----------------|-------------------|
|-(2)--5---5-5---3-|-(3)------(3)---|-----------5-------|
|-(0)--0---0-0---5-|-(5)------(5)---|-------5-------5---|
|----------------5-|-(5)------(5)-3-|-(3)-3---3---3---3-|
|------------------|----------------|-------------------|


  C5                    D5
          PM  PM
  +E  E E E E E E E     Q   Q  H
|--------------------||-------------*|
|-------------------o||-------------*|
|-----------5--------||-7\----------*|
|-------5-------5-0--||-7\----------*|
|-(3)-3---3---3-----o||-5\----------*|
|--------------------||-------------*|



Duration Legend
---------------
W - whole; H - half; Q - quarter; E - 8th; S - 16th; T - 32nd; X - 64th; a - acciaccatura
+ - note tied to previous; . - note dotted; .. - note double dotted
Uncapitalized letters represent notes that are staccato (1/2 duration)
Irregular groupings are notated above the duration line
Duration letters will always appear directly above the note/fret number it represents the
duration for.  Duration letters with no fret number below them represent rests.  Multi-
bar rests are notated in the form Wxn, where n is the number of bars to rest for.  Low
melody durations appear below the staff

Tablature Legend
----------------
 h   - hammer-on
 p   - pull-off
 b   - bend
 pb  - pre-bend
 r   - bend release (if no number after the r, then release immediately)
 /\  - slide into or out of (from/to "nowhere")
 s   - legato slide
 S   - shift slide
 - natural harmonic
[n]  - artificial harmonic
n(n) - tapped harmonic
 ~   - vibrato
 tr  - trill
 T   - tap
 TP  - trem. picking
 PM  - palm muting
\n/  - tremolo bar dip; n = amount to dip
 \n  - tremolo bar down
 n/  - tremolo bar up
/n\  - tremolo bar inverted dip
 =   - hold bend; also acts as connecting device for hammers/pulls
 <> - volume swell (louder/softer)
 x   - on rhythm slash represents muted slash
 o   - on rhythm slash represents single note slash

Misc Legend
-----------
 |  - bar
||  - double bar
||o - repeat start
o|| - repeat end
*|  - double bar (ending)
 :  - bar (freetime)
 $  - Segno
 &  - Coda
Tempo markers -  = BPM(8/16=s8/s16), where s8 = swing 8ths, s16 = swing 16ths

Tap to rate this tab
# A B C D E F G H I J K L M N O P Q R S T U V W X Y Z