Song name
# A B C D E F G H I J K L M N O P Q R S T U V W X Y Z

Lordi - Rock The Hell Outta You tab

#----------------------------------PLEASE NOTE---------------------------------#
#This file is the author's own work and represents their interpretation of the #
#song. You may only use this file for private study, scholarship, or research. #
#------------------------------------------------------------------------------#

ROCK THE HELL OUTTA YOU
As recorded by Lordi
(From the 2002 Album GET HEAVY)

Transcribed by Hard 'n' Heavy
	

Words and Music by Lordi
Arranged by Lordi

Gtr I (E A D G B E) - 'Untitled'
Gtr II (E A D G B E) - 'Untitled'

   Intro
    Q=125
    B5
   4/4
    Gtr I
                      |---5---|
    E E S S S S +E  E S S S S S
||------------------------------|
||o-----------------------------|
||------------------------------|
||--4-4-------0-(0)---0h2h3p2p0-|
||o-2-2-------------2-----------|
||------0h1h2-------------------|


                    |---5---|                     |---5---|
  E E S S S S +E  E S S S S S   E E S S S S +E  E S S S S S
|-----------------------------|-----------------------------|
|-----------------------------|-----------------------------|
|-----------------------------|-----------------------------|
|-4-4-------0-(0)---0h2h3p2p0-|-4-4-------0-(0)---0h2h3p2p0-|
|-2-2-------------2-----------|-2-2-------------2-----------|
|-----0h1h2-------------------|-----0h1h2-------------------|


                  Pre-Verse                          Verse
                   $
  E5   F5   F#5    B5                           Bb5   G#5          F#5
  Q.   Q.   Q      E E Q  E E Q    E E Q  E E S E.    E E Q  E E S E.
|---------------||---------------|-----------------||------------------|
|--------------o||---------------|-----------------||------------------|
|---------------||---------------|-----------------||------------------|
|-2----3----4---||-9-9----9-9----|-9-9----9-9---8--||-6-6----6-6---4---|
|-2----3----4--o||-9-9----9-9----|-9-9----9-9---8--||-6-6----6-6---4---|
|-0----1----2---||-7-7----7-7----|-7-7----7-7---6--||-4-4----4-4---2---|


  E5            G#5          F#5  E5         C5
  E E Q  H      E E Q  E E S E.   E E H    S E.
|-------------|-----------------|---------------|
|-------------|-----------------|---------------|
|-------------|-----------------|------------6--|
|-2-2---------|-6-6----6-6---4--|-2-2--------6--|
|-2-2---------|-6-6----6-6---4--|-2-2--------4--|
|-0-0---------|-4-4----4-4---2--|-0-0-----------|


  G#5          F#5  E5       C#5
  E E Q  E E S E.   E E Q  S E. S E.
|-----------------|------------------||
|-----------------|------------------||
|-----------------|----------6----6--||
|-6-6----6-6---4--|-2-2------6----6--||
|-6-6----6-6---4--|-2-2------4----4--||
|-4-4----4-4---2--|-0-0--------------||


 Pre-Chorus
  G#5         E5            F#5         E5      F#5
  E S S E S S E S S E S S   E S S E S S E S S S E.
|-------------------------|-------------------------|
|-------------------------|-------------------------|
|-------------------------|-------------------------|
|-6-----6-----2-----2-----|-4-----4-----2-------4---|
|-6-----6-----2-----2-----|-4-----4-----2-------4---|
|-4-4-4-4-4-4-0-0-0-0-0-0-|-2-2-2-2-2-2-0-0-0-0-2---|


                                        Chorus
  G#5         E5            F#5          B5  A5B5          G5  F#G5
  E S S E S S E S S E S S   W            E E E E +H        E E E E +H
|-------------------------|----------||------------------|----------------|
|-------------------------|----------||o-----------------|----------------|
|-------------------------|----------||------------------|----------------|
|-6-----6-----2-----2-----|-4--------||--9-9-7-9-(9)\----|-5-5-4-5-(5)----|
|-6-----6-----2-----2-----|-4--------||o-9-9-7-9-(9)\----|-5-5-4-5-(5)----|
|-4-4-4-4-4-4-0-0-0-0-0-0-|-2--------||--7-7-5-7-(7)\----|-3-3-2-3-(3)----|


                                  Pre-Verse
                        To Coda                                  D.S. al Coda
  A5  G5A5         D5    D5/C#     B5                            E5   F5   F#5
                                                     |---5---|
  E E E E +H       Q  Q  Q  Q      E E S S S S +E  E S S S S S   Q.   Q.   Q
|----------------|--------------||-----------------------------|--------------||
|----------------|-------------o||-----------------------------|--------------||
|----------------|-7--7--7--7---||-----------------------------|--------------||
|-7-7-5-7-(7)----|-7--7--7--7---||-4-4-------0-(0)---0h2h3p2p0-|-2----3----4--||
|-7-7-5-7-(7)----|-5--5--4--4--o||-2-2-------------2-----------|-2----3----4--||
|-5-5-3-5-(5)----|--------------||-----0h1h2-------------------|-0----1----2--||


 Guitar Break
  &
  D5   A5   D5       A5 D5E5      D5E5  D5E5        D5   A5   D5
  Q.   Q.   Q    +E  Q  E Q  Q    E E E E E E E E   Q.   Q.   Q
|--------------|----------------|-----------------|---------------|
|--------------|----------------|-----------------|---------------|
|-7---------7--|-(7)----7-9--9--|-7-9-9-7-9-9-9---|-7---------7---|
|-7----7----7--|-(7)-7--7-9--9--|-7-9-9-7-9-9-9---|-7----7----7---|
|-5----7----5--|-(5)-7--5-7--7--|-5-7-7-5-7-7-7---|-5----7----5---|
|------5-------|-----5----------|-----------------|------5--------|


      A5 D5E5      D5E5  D5E5        D5   A5   D5       A5 Bb5 B5
                                                   2/4        4/4
                                                                 PM----------|
  +E  Q  E Q  Q    E E E E E E E E   Q.   Q.   Q    +E  Q  E   E E E E E E E E
|----------------|-----------------|--------------|----------|-----------------|
|----------------|-----------------|--------------|----------|-----------------|
|-(7)----7-9--9--|-7-9-9-7-9-9-9---|-7---------7--|-(7)------|-----------------|
|-(7)-7--7-9--9--|-7-9-9-7-9-9-9---|-7----7----7--|-(7)-7--8-|-9---------------|
|-(5)-7--5-7--7--|-5-7-7-5-7-7-7---|-5----7----5--|-(5)-7--8-|-9-9-9-9-9-9-9-9-|
|-----5----------|-----------------|------5-------|-----5--6-|-7-7-7-7-7-7-7-7-|


                          Bridge
  N.C.                     F#
                           Gtr II
  S E S E S E S E S E S    S S S S S S S S S S S S S S S S
|-----------------------||---------------------------------|
|-----------------------||---------------------------------|
|-----------------------||---------------------------------|
|---9---8---7---6---5---||---------------------------------|
|-----------------------||---------------------------------|
|-7---6---5---4---3---3-||-2-2-2-2-2-2-2-2-2-2-2-2-2-2-2-2-|


  B                                 F#
  S S S S S S S S S S S S S S S S   S S S S S S S S S S S S S S S S
|---------------------------------|----------------------------------|
|---------------------------------|----------------------------------|
|---------------------------------|----------------------------------|
|---------------------------------|----------------------------------|
|-2-2-2-2-2-2-2-2-2-2-2-2-2-2-2-2-|----------------------------------|
|---------------------------------|-2-2-2-2-2-2-2-2-2-2-2-2-2-2-2-2--|


  G                                 F#
  S S S S S S S S S S S S S S S S   S S S S S S S S S S S S S S S S
|---------------------------------|---------------------------------|
|---------------------------------|---------------------------------|
|---------------------------------|---------------------------------|
|---------------------------------|---------------------------------|
|---------------------------------|---------------------------------|
|-3-3-3-3-3-3-3-3-3-3-3-3-3-3-3-3-|-2-2-2-2-2-2-2-2-2-2-2-2-2-2-2-2-|


  B
  S S S S S S S S S S S S S S S S
|------------------------------------|
|------------------------------------|
|------------------------------------|
|------------------------------------|
|-2-2-2-2-2-2-2-2-2-2-2-2-2-2-2-2----|
|------------------------------------|


                                       Chorus
  G5         A5         B5              B5  A5B5
  Gtr I
  W          W          E E Q  H        E E E E +H
|----------|----------|-------------||------------------|
|----------|----------|-------------||o-----------------|
|----------|----------|-------------||------------------|
|-5--------|-7--------|-9-----------||--9-9-7-9-(9)\----|
|-5--------|-7--------|-9-----------||o-9-9-7-9-(9)\----|
|-3--------|-5--------|-7-----------||--7-7-5-7-(7)\----|


                                                   Outro
  G5  F#G5         A5  G5A5         D5    D5/C#     D5   A5   D5       A5 Bb5
                                                                  2/4
  E E E E +H       E E E E +H       Q  Q  Q  Q   4x Q.   Q.   Q    +E  Q  E
|----------------|----------------|--------------||--------------|------------|
|----------------|----------------|-------------o||--------------|------------|
|----------------|----------------|-7--7--7--7---||-7---------7--|-(7)--------|
|-5-5-4-5-(5)----|-7-7-5-7-(7)----|-7--7--7--7---||-7----7----7--|-(7)-7--8---|
|-5-5-4-5-(5)----|-7-7-5-7-(7)----|-5--5--4--4--o||-5----7----5--|-(5)-7--8---|
|-3-3-2-3-(3)----|-5-5-3-5-(5)----|--------------||------5-------|-----5--6---|


  B5
 4/4
                    |---5---|                     |---5---|
  E E S S S S +E  E S S S S S   E E S S S S +E  E S S S S S
|-----------------------------|-----------------------------|
|-----------------------------|-----------------------------|
|-----------------------------|-----------------------------|
|-4-4-------0-(0)---0h2h3p2p0-|-4-4-------0-(0)---0h2h3p2p0-|
|-2-2-------------2-----------|-2-2-------------2-----------|
|-----0h1h2-------------------|-----0h1h2-------------------|


                    |---5---|
  E E S S S S +E  E S S S S S
|------------------------------|
|------------------------------|
|------------------------------|
|-4-4-------0-(0)---0h2h3p2p0--|
|-2-2-------------2------------|
|-----0h1h2--------------------|


  E5   F5   F#5  B5
                     |---5---|
  Q.   Q.   Q    E E S S S S S E E  Q
|--------------|-----------------------*|
|--------------|-----------------------*|
|--------------|-----------------------*|
|-2----3----4--|-4-4-0h2h3p2p0-4-4\----*|
|-2----3----4--|-2-2-----------2-2\----*|
|-0----1----2--|-----------------------*|



Duration Legend
---------------
W - whole; H - half; Q - quarter; E - 8th; S - 16th; T - 32nd; X - 64th; a - acciaccatura
+ - note tied to previous; . - note dotted; .. - note double dotted
Uncapitalized letters represent notes that are staccato (1/2 duration)
Irregular groupings are notated above the duration line
Duration letters will always appear directly above the note/fret number it represents the
duration for.  Duration letters with no fret number below them represent rests.  Multi-
bar rests are notated in the form Wxn, where n is the number of bars to rest for.  Low
melody durations appear below the staff

Tablature Legend
----------------
 h   - hammer-on
 p   - pull-off
 b   - bend
 pb  - pre-bend
 r   - bend release (if no number after the r, then release immediately)
 /\  - slide into or out of (from/to "nowhere")
 s   - legato slide
 S   - shift slide
 - natural harmonic
[n]  - artificial harmonic
n(n) - tapped harmonic
 ~   - vibrato
 tr  - trill
 T   - tap
 TP  - trem. picking
 PM  - palm muting
\n/  - tremolo bar dip; n = amount to dip
 \n  - tremolo bar down
 n/  - tremolo bar up
/n\  - tremolo bar inverted dip
 =   - hold bend; also acts as connecting device for hammers/pulls
 <> - volume swell (louder/softer)
 x   - on rhythm slash represents muted slash
 o   - on rhythm slash represents single note slash

Misc Legend
-----------
 |  - bar
||  - double bar
||o - repeat start
o|| - repeat end
*|  - double bar (ending)
 :  - bar (freetime)
 $  - Segno
 &  - Coda
Tempo markers -  = BPM(8/16=s8/s16), where s8 = swing 8ths, s16 = swing 16ths

Tap to rate this tab
# A B C D E F G H I J K L M N O P Q R S T U V W X Y Z