Song name
# A B C D E F G H I J K L M N O P Q R S T U V W X Y Z

Lordi - My Heaven Is Your Hell tab

-----------------------------------------------------------------------------
			     My Heaven Is Your Hell- Lordi
-----------------------------------------------------------------------------
Tabbed by: Gary K
Email: hojemwod@yahoo.com
Might be wrong tuning but it sounds good to me. I set it up so you don’t have to keep 
up to find certain parts. Just scroll down as the song goes. This is the whole thing minus 
solo, I might do that later. Thanks for any input.

e|--------------------------------------------------------------------------|
B|--------------------------------------------------------------------------|
G|--------------------------------------------------------------------------|
D|--------------------------------------------------------------------------|
A|-2--5--2--8--7---2--5--2--2--2--0-----------------------------------------|
D|-2--5--2--8--7---2--5--2--2--2--0-----------------------------------------|

X3^

e|-----------------------------------------------------------------------------|
B|-----------------------------------------------------------------------------|
G|-----------------------------------------------------------------------------|
D|-----------------------------------------------------------------------------|
A|-2--5--2--8--7---2--5--2--2--2--2--2--2--2-0---------------------------------|
D|-2--5--2--8--7---2--5--2--2--2--2--2--2—-2-0---------------------------------|

X1^

e|--------------------------------------------------------------------------|
B|--------------------------------------------------------------------------|
G|-7-5-7--7-5-7--7-5---5-7----7-5-7--7-5-7--7-5---5-7-----------------------|
D|-7-5-7--7-5-7--7-5-7-5-7-5--7-5-7--7-5-7--7-5-7-5-7-3---------------------|
A|-5-5-5--5-5-5--5-5-7-5-5-5--5-5-5--5-5-5--5-5-7-5-5-3---------------------|
D|--------------------------------------------------------------------------|

X1^

e|--------------------------------------------------------------------------|
B|--------------------------------------------------------------------------|
G|--------------------------------------------------------------------------|
D|-3------3-----------------------------------------------------------------|
A|-3-3333-3-3-3-3-3---------------------------------------------------------|
D|---3333---3-3-3-3---------------------------------------------------------|
 X2^  xxxx   x x x x

e|--------------------------------------------------------------------------|
B|--------------------------------------------------------------------------|
G|--------------------------------------------------------------------------|
D|-5------5----5-------------5----------------------------------------------|
A|-5-5555-5-55-5-5—5-5-7---5---5--------------------------------------------|
D|---5555---55---5-------7--------------------------------------------------|

X1   xxxx   xx         +

e|--------------------------------------------------------------------------|
B|--------------------------------------------------------------------------|
G|----9--7-5-9------------------10-10--10--9-9--7---------------------------|
D|----9--7-5-9------------------10-10--10--9-9--7---------------------------|
A|-7--7--5-3-7--7----------------8--8---8--7-7--5---/8-7-5-7----5----7-5--3-|
D|-7------------7--7--9-10-9-5----------------------------------5----7-5--3-|

X1^             x

e|--------------------------------------------------------------------------|
B|--------------------------------------------------------------------------|
G|-7--5---------------------------------------------------------------------|
D|-7--5------7-----5--------------------------------------------------------|
A|-5--3----5-----5---5------------------------------------------------------|
D|-------7-----7------------------------------------------------------------|

X1^          +

e|--------------------------------------------------------------------------|
B|--------------------------------------------------------------------------|
G|----9--7-5-9------------------10-10--10--9-9--7---------------------------|
D|----9--7-5-9------------------10-10--10--9-9--7---------------------------|
A|-7--7--5-3-7--7----------------8--8---8--7-7--5---/8-7-5-7----5----7-5--3-|
D|-7------------7--7--9-10-9-5----------------------------------5----7-5--3-|

X1^             x

e|--------------------------------------------------------------------------|
B|--------------------------------------------------------------------------|
G|-7-5----------------------------------------------------------------------|
D|-7-5-------------------------------------5---------5----------------------|
A|-5-3--5 5-5--7--------------3-3--3-5-------7-7--5--5----------------------|
D|------5 5-5--7-----7/17\1---3----3----/5--------5-------------------------|

X1^       x

e|--------------------------------------------------------------------------|
B|--------------------------------------------------------------------------|
G|--------------------------------------------------------------------------|
D|---------------------3-33-333--5-55-55-5-7--------------------------------|
A|-2-22-222--2-22-222--3-33-333--5-55-55-5-7--------------------------------|
D|-2-22-222--2-22-222-------------------------------------------------------|

X1^     xxx       xxx       xxx       xx

e|--------------------------------------------------------------------------|
B|--------------------------------------------------------------------------|
G|--------------------------------------------------------------------------|
D|---------------------3-33-------------------------------------------------|
A|-2-22-222--2-22-222--3-33-------------------------------------------------|
D|-2-22-222--2-22-222-------------------------------------------------------|

X1^     xxx       xxx

e|--------------------------------------------------------------------------|
B|--------------------------------------------------------------------------|
G|-7-5-7--7-5-7--7-5---5-7----7-5-7--7-5-7--7-5---5-7-----------------------|
D|-7-5-7--7-5-7--7-5-7-5-7-5--7-5-7--7-5-7--7-5-7-5-7-3---------------------|
A|-5-5-5--5-5-5--5-5-7-5-5-5--5-5-5--5-5-5--5-5-7-5-5-3---------------------|
D|--------------------------------------------------------------------------|

X1^

e|--------------------------------------------------------------------------|
B|--------------------------------------------------------------------------|
G|--------------------------------------------------------------------------|
D|-3------3-----------------------------------------------------------------|
A|-3-3333-3-3-3-3-3---------------------------------------------------------|
D|---3333---3-3-3-3---------------------------------------------------------|
 X2^  xxxx   x x x x

e|--------------------------------------------------------------------------|
B|--------------------------------------------------------------------------|
G|--------------------------------------------------------------------------|
D|-5------5----5-------------5----------------------------------------------|
A|-5-5555-5-55-5-5—5-5-7---5---5--------------------------------------------|
D|---5555---55---5-------7--------------------------------------------------|

X1   xxxx   xx         +

e|--------------------------------------------------------------------------|
B|--------------------------------------------------------------------------|
G|----9--7-5-9------------------10-10--10--9-9--7---------------------------|
D|----9--7-5-9------------------10-10--10--9-9--7---------------------------|
A|-7--7--5-3-7--7----------------8--8---8--7-7--5---/8-7-5-7----5----7-5--3-|
D|-7------------7--7--9-10-9-5----------------------------------5----7-5--3-|

X1^             x

e|--------------------------------------------------------------------------|
B|--------------------------------------------------------------------------|
G|-7--5---------------------------------------------------------------------|
D|-7--5------7-----5--------------------------------------------------------|
A|-5--3----5-----5---5------------------------------------------------------|
D|-------7-----7------------------------------------------------------------|

X1^          +

e|--------------------------------------------------------------------------|
B|--------------------------------------------------------------------------|
G|----9--7-5-9------------------10-10--10--9-9--7---------------------------|
D|----9--7-5-9------------------10-10--10--9-9--7---------------------------|
A|-7--7--5-3-7--7----------------8--8---8--7-7--5---/8-7-5-7----5----7-5--3-|
D|-7------------7--7--9-10-9-5----------------------------------5----7-5--3-|

X1^             x

e|--------------------------------------------------------------------------|
B|--------------------------------------------------------------------------|
G|-7-5----------------------------------------------------------------------|
D|-7-5--------------------12--13-14-----------------------------------------|
A|-5-3--5 5-5--7--5--4-3--12--13-14-----------------------------------------|
D|------5 5-5--7--5--4-3--12--13-14-----------------------------------------|

X1^       x

(Small Solo @ 2:37, Do it later)
e|--------------------------------------------------------------------------|
B|--------------------------------------------------------------------------|
G|-----------------10-10--10--9-9--7----------------------------------------|
D|-----------------10-10--10--9-9--7----------------------------------------|
A|------------------8--8---8--7-7--5---/8-7-5-7----5----7-5--3--------------|
D|-------------------------------------------------5----7-5--3--------------|

X1^

e|--------------------------------------------------------------------------|
B|--------------------------------------------------------------------------|
G|-7--5---------------------------------------------------------------------|
D|-7--5------7-----5--------------------------------------------------------|
A|-5--3----5-----5---5------------------------------------------------------|
D|-------7-----7------------------------------------------------------------|

X1^

e|--------------------------------------------------------------------------|
B|--------------------------------------------------------------------------|
G|----9--7-5-9------------------10-10--10--9-9--7---------------------------|
D|----9--7-5-9------------------10-10--10--9-9--7---------------------------|
A|-7--7--5-3-7--7----------------8--8---8--7-7--5---/8-7-5-7----5----7-5--3-|
D|-7------------7--7--9-10-9-5----------------------------------5----7-5--3-|

X1^             x

e|--------------------------------------------------------------------------|
B|--------------------------------------------------------------------------|
G|-7-5----------------------------------------------------------------------|
D|-7-5----------------------------------------------------------------------|
A|-5-3--5--5-7-5-7----------------------------------------------------------|
D|------5--5-7-5-7----------------------------------------------------------|

X1^

e|--------------------------------------------------------------------------|
B|--------------------------------------------------------------------------|
G|----9--7-5-9------------------10-10--10--9-9--7---------------------------|
D|----9--7-5-9------------------10-10--10--9-9--7---------------------------|
A|-7--7--5-3-7--7----------------8--8---8--7-7--5---/8-7-5-7----5----7-5--3-|
D|-7------------7--7--9-10-9-5----------------------------------5----7-5--3-|

X1^             x

e|--------------------------------------------------------------------------|
B|--------------------------------------------------------------------------|
G|-7-5----------------------------------------------------------------------|
D|-7-5----------------------------------------------------------------------|
A|-5-3--5--5-7-5-7----------------------------------------------------------|
D|------5--5-7-5-7----------------------------------------------------------|

X1^

e|--------------------------------------------------------------------------|
B|--------------------------------------------------------------------------|
G|--------------------------------------------------------------------------|
D|--------------------------------------------------------------------------|
A|-2--5--2--8--7---2--5--2--2--2--0-----------------------------------------|
D|-2--5--2--8--7---2--5--2--2--2--0-----------------------------------------|

X1^

e|--------------------------------------------------------------------------|
B|--------------------------------------------------------------------------|
G|--------------------------------------------------------------------------|
D|--------------------------------------------------------------------------|
A|-2--5--2--8--7---2--5--2--2--2--2-----------------------------------------|
D|-2--5--2--8--7---2--5--2--2--2--2-----------------------------------------|

X1^

| /  slide up
| \  slide down
| h  hammer-on
| p  pull-off
| ~  vibrato
| +  harmonic
| x  Mute note
=============================================================================
Tap to rate this tab
 
# A B C D E F G H I J K L M N O P Q R S T U V W X Y Z