Song name
# A B C D E F G H I J K L M N O P Q R S T U V W X Y Z

Lordi - Last Kiss Goodbye tab

Last Kiss Goodbye - Lordi
Tabbed by Ricky Tanner

/ = Slide to
~ = Vibrato
x - Dead Note

INTRO
e|------------------------------------|
B|------------------------------------|
G|---------------------X4-------4/764-|
D|-9999-4444-2222-7777----5--42-x-xxx-|
A|-9999-4444-2222-7777----5--42-2/542-|
E|-7777-2222-0000-5555----3--20-------|

VERSE
e|-----------------|
B|-----------------|
G|-----------------|
D|-----------------|
A|-4-5~--4-5~--4-5~|
E|-----------------|

PRE CHORUS
e|-----------------------------------|
B|-----------------------------------|
G|-7----------------7----------------|
D|-7--57--957--55---7-57-9-54x4x4x4x-|
A|-5--57--957--55---5-57-9-54x4x4x4x-|
E|----35--735--33-----35-7-32x2x2x2x-|

CHORUS
e|------------------------------------|
B|------------------------------------|
G|---------------------X4-------4/764-|
D|-9999-4444-2222-7777----5--42-x-xxx-|
A|-9999-4444-2222-7777----5--42-2/542-|
E|-7777-2222-0000-5555----3--20-------| 

VERSE
e|------------|
B|------------|
G|------------|
D|------------|
A|-4-5~--4-5~-|
E|------------|

PRE CHORUS
e|-----------------------------------|
B|-----------------------------------|
G|-7----------------7----------------|
D|-7--57--957--55---7-57-9-54x4x4x4x-|
A|-5--57--957--55---5-57-9-54x4x4x4x-|
E|----35--735--33-----35-7-32x2x2x2x-|

CHORUS
e|------------------------------------|
B|------------------------------------|
G|---------------------X4-------4/764-|
D|-9999-4444-2222-7777----5--42-x-xxx-|
A|-9999-4444-2222-7777----5--42-2/542-|
E|-7777-2222-0000-5555----3--20-------| 

BRIDGE (PRE SOLO)
e|---------------------------------------------|
B|---------------------------------------------|
G|---------------------------------------------|
D|-7----2----5--79-----7----2----5-42-4x4x4x4x-|
A|-7----2----5--79-----7----2----5-42-4x4x4x4x-|
E|-5----0----3--57-----5----0----3-20-2x2x2x2x-|

SOLO 
e|-------------------------------------------|
B|-7~----5~-----7~----5~--3-2-0--------------|
G|----6~----4~-----6~------------1-2-4-7-6-4-|
D|-------------------------------------------|
A|-------------------------------------------|
E|-------------------------------------------|

CHORUS X2
e|------------------------------------|
B|------------------------------------|
G|---------------------X4-------4/764-|
D|-9999-4444-2222-7777----5--42-x-xxx-|
A|-9999-4444-2222-7777----5--42-2/542-|
E|-7777-2222-0000-5555----3--20-------|
Tap to rate this tab
# A B C D E F G H I J K L M N O P Q R S T U V W X Y Z