Song name
# A B C D E F G H I J K L M N O P Q R S T U V W X Y Z

Lordi - Dynamite Tonight tab

Help us improve GuitareTab! Take a short survey!
Well this is what i tried to learn by ear i got part of it rigt i know the ending of the 
is wired but its wut i got for now HOPE it helps....


               LORDI: DYNAMITE TONIGHT


------------------------------------------------------------------|
----------12------------------12------------------12--------------|
-14-14-12----14-12~--12-11-12----12------14-14-12----14-12~-------|
------------------------------------12~---------------------------|
------------------------------------------------------------------|
------------------------------------------------------------------|

------------------------------------------------------------------|
-17 x12-16-13-12--------------------------------------------------|
------------------------------------------------------------------|
------------------------------------------------------------------|
------------------------------------------------------------------|
------------------------------------------------------------------|
Related for Dynamite Tonight tab