Song name
# A B C D E F G H I J K L M N O P Q R S T U V W X Y Z

Lordi - Night Of The Loving Dead tab

#----------------------------------PLEASE NOTE---------------------------------#
#This file is the author's own work and represents their interpretation of the #
#song. You may only use this file for private study, scholarship, or research. #
#------------------------------------------------------------------------------#




Transcribed by neoamir
	



Gtr I (D A D G B E) - 'Untitled'

   Intro
    Q=114
   4/4
    Gtr I
      PM|   PM|             PM|   PM|   PM|
    E S S E S S e. e. E   E S S E S S E S S E E
||----------------------|-----------------------|
||o---------------------|-----------------------|
||--2-----2-----5--5--5-|-5-----5-----7-----7S9-|
||--2-----2-----5--4--3-|-3-----3-----5-----5S7-|
||o---0-0---0-0---------|---0-0---0-0---0-0-----|
||----------------------|-----------------------|


    PM|   PM|             PM|   PM|
  E S S E S S e. e. E   E S S E S S S S S Q  +S
|---------------------|----------------------------||
|---------------------|---------------------------o||
|-2-----2-----5--5--5-|-5-----5-----5S4S2-0--(0)---||
|-2-----2-----5--4--3-|-3-----3-----5S4S2-0--(0)---||
|---0-0---0-0---------|---0-0---0-0---------------o||
|---------------------|----------------------------||


   verse
      PM|   PM|             PM|   PM|   PM|
    E S S E S S e. e. E   E S S E S S E S S E E
||----------------------|-----------------------|
||o---------------------|-----------------------|
||--2-----2-----5--5--5-|-5-----5-----7-----7S9-|
||--2-----2-----5--4--3-|-3-----3-----5-----5S7-|
||o---0-0---0-0---------|---0-0---0-0---0-0-----|
||----------------------|-----------------------|


    PM|   PM|             PM|   PM|
  E S S E S S e. e. E   E S S E S S S S S Q  +S
|---------------------|-----------------------------||
|---------------------|----------------------------o||
|-2-----2-----5--5--5-|-5-----5-----5S4S2-0--(0)----||
|-2-----2-----5--4--3-|-3-----3-----5S4S2-0--(0)----||
|---0-0---0-0---------|---0-0---0-0----------------o||
|---------------------|-----------------------------||


 Pre Chorus
                                     PM------|
  W           W          H    H      E E E E E E Q
|----------|-----------|-----------|----------------|
|----------|-----------|-----------|----------------|
|----------|-----------|-----------|----------------|
|-2--------|-10--------|-5----0----|-2-2-2-2-2---5--|
|-2--------|-10--------|-5----0----|-2-2-2-2-2---5--|
|-2--------|-10--------|-5----0----|-2-2-2-2-2---5--|


 Chorus
  Q  E E Q  Q    E E E E E E Q
|--------------|----------------|
|--------------|----------------|
|--------------|----------------|
|-7--7-5-7--7--|-2-3---2-3---5--|
|-7--7-5-7--7--|-2-3---2-3---5--|
|-7--7-5-7--7--|-2-3---2-3---5--|


  Q   Q    E   E   E  E   +Q    Q    E   E   E  E
|-----------------------|-------------------------|
|-----------------------|-------------------------|
|-----------------------|-------------------------|
|-3--[3]--------------5-|-(5)---------------------|
|-3-------[2]-[0]-----5-|-(5)--[2]--[2]-[3]-[5]---|
|-3---------------[3]-5-|-(5)-------------------5-|


  Q  E E Q  Q    E E E E E E Q    Q   Q    E   E   E  E   +W
|--------------|----------------|-----------------------|--------|
|--------------|----------------|-----------------------|--------|
|--------------|----------------|-----------------------|--------|
|-7--7-5-7--7--|-2-3---2-3---5--|-3--[3]--------------5-|-(5)----|
|-7--7-5-7--7--|-2-3---2-3---5--|-3-------[2]-[0]-----5-|-(5)----|
|-7--7-5-7--7--|-2-3---2-3---5--|-3---------------[3]-5-|-(5)----|


 pre verse
    PM|   PM|             PM|   PM|   PM|
  E S S E S S e. e. E   E S S E S S E S S E E
|---------------------|-----------------------|
|---------------------|-----------------------|
|-2-----2-----5--5--5-|-5-----5-----7-----7S9-|
|-2-----2-----5--4--3-|-3-----3-----5-----5S7-|
|---0-0---0-0---------|---0-0---0-0---0-0-----|
|---------------------|-----------------------|


    PM|   PM|             PM|   PM|
  E S S E S S e. e. E   E S S E S S S S S Q  +S
|---------------------|--------------------------|
|---------------------|--------------------------|
|-2-----2-----5--5--5-|-5-----5-----5S4S2-0--(0)-|
|-2-----2-----5--4--3-|-3-----3-----5S4S2-0--(0)-|
|---0-0---0-0---------|---0-0---0-0--------------|
|---------------------|--------------------------|


   verse
      PM|   PM|             PM|   PM|   PM|
    E S S E S S e. e. E   E S S E S S E S S E E
||----------------------|-----------------------|
||o---------------------|-----------------------|
||--2-----2-----5--5--5-|-5-----5-----7-----7S9-|
||--2-----2-----5--4--3-|-3-----3-----5-----5S7-|
||o---0-0---0-0---------|---0-0---0-0---0-0-----|
||----------------------|-----------------------|


    PM|   PM|             PM|   PM|
  E S S E S S e. e. E   E S S E S S S S S Q  +S
|---------------------|-----------------------------||
|---------------------|----------------------------o||
|-2-----2-----5--5--5-|-5-----5-----5S4S2-0--(0)----||
|-2-----2-----5--4--3-|-3-----3-----5S4S2-0--(0)----||
|---0-0---0-0---------|---0-0---0-0----------------o||
|---------------------|-----------------------------||


 pre chorus
                                     PM------|
  W           W          H    H      E E E E E E Q
|----------|-----------|-----------|----------------|
|----------|-----------|-----------|----------------|
|----------|-----------|-----------|----------------|
|-2--------|-10--------|-5----0----|-2-2-2-2-2---5--|
|-2--------|-10--------|-5----0----|-2-2-2-2-2---5--|
|-2--------|-10--------|-5----0----|-2-2-2-2-2---5--|


 Chorus
  Q  E E Q  Q    E E E E E E Q
|--------------|----------------|
|--------------|----------------|
|--------------|----------------|
|-7--7-5-7--7--|-2-3---2-3---5--|
|-7--7-5-7--7--|-2-3---2-3---5--|
|-7--7-5-7--7--|-2-3---2-3---5--|


  Q   Q    E   E   E  E   +Q    Q    E   E   E  E
|-----------------------|-------------------------|
|-----------------------|-------------------------|
|-----------------------|-------------------------|
|-3--[3]--------------5-|-(5)---------------------|
|-3-------[2]-[0]-----5-|-(5)--[2]--[2]-[3]-[5]---|
|-3---------------[3]-5-|-(5)-------------------5-|


  Q  E E Q  Q    E E E E E E Q    Q   Q    E   E   E  E   +W
|--------------|----------------|-----------------------|--------|
|--------------|----------------|-----------------------|--------|
|--------------|----------------|-----------------------|--------|
|-7--7-5-7--7--|-2-3---2-3---5--|-3--[3]--------------5-|-(5)----|
|-7--7-5-7--7--|-2-3---2-3---5--|-3-------[2]-[0]-----5-|-(5)----|
|-7--7-5-7--7--|-2-3---2-3---5--|-3---------------[3]-5-|-(5)----|


 Bridge
  W          +H     +E  Q  E   +W           +W
|----------|-----------------|------------|--------|
|-5--------|-(5)----(5)-5--6-|-(6)--------|-(6)----|
|-4--------|-(4)----(4)----5-|-(5)--------|-(5)----|
|-2--------|-(2)----(2)----3-|-(3)--------|-(3)----|
|-2--------|-(2)----(2)----3-|-(3)--------|-(3)----|
|-2--------|-(2)----(2)-2--3-|-(3)--------|-(3)----|


  W          W           S  E  S  E  S  E  S  E  Q
|----------|----------|-----------------------------|
|-8--------|-9--------|-----------------------------|
|-7--------|-8--------|-----------------------------|
|-5--------|-6--------|-14-14-14-14-14-14-14-14-14--|
|-5--------|-6--------|-----------------------------|
|-5--------|-6--------|-----------------------------|


 solo
   S  E  S  E  S  E  S  S  S  S  S  E    S  E  S  E  S  E  S  S  S  Q
|-------------------------------------|--------------------------------|
|-------------------------------------|--------------------------------|
|-14-14-12-12-------------------------|-14-14-12-12--------------------|
|-------------14-14-13-12p10h12p10----|-------------14-14-13p12p10h12--|
|----------------------------------12-|--------------------------------|
|-------------------------------------|--------------------------------|


   S  E  S  E  S  E  S  S  S  S  S  E    H     S  S  S  S  +Q
|-------------------------------------|---------------------------|
|-13-13-------------------------------|-------15p13---------------|
|-------14-14-12-12----12-13h14----12-|-14----------14p12-(12)----|
|-------------------14----------14----|---------------------------|
|-------------------------------------|---------------------------|
|-------------------------------------|---------------------------|


   ~~~~~~~~~~~~~~~~~~    ~~~~~~~~~~~~~~       ~~~~~~~~~~
   Q       Q   E   E  E  E        +E    E  E  H     +E
|-----------------------15b17==|=(15)r-15-12-15----(15)-|
|-15b17===15--15r-15-12--------|------------------------|
|------------------------------|------------------------|
|------------------------------|------------------------|
|------------------------------|------------------------|
|------------------------------|------------------------|


                  ~~~~~~~~~~~~~~~~~~~~~~~~~~~~~~~~~~~~~~
   Q   Q   E     +E   Q     S  S  S  S  S  S  S  S  +H
|-10---------------------|----15-15----15-15----15-(15)----|
|-----12--10b12r(10)-----|-17-------17-------17------------|
|--------------------12--|---------------------------------|
|------------------------|---------------------------------|
|------------------------|---------------------------------|
|------------------------|---------------------------------|


   Chorus 3
    Q  E E Q  Q    E E E E E E Q
||---------------|----------------|
||o--------------|----------------|
||---------------|----------------|
||--7--7-5-7--7--|-2-3---2-3---5--|
||o-7--7-5-7--7--|-2-3---2-3---5--|
||--7--7-5-7--7--|-2-3---2-3---5--|


  Q   Q    E   E   E  E   +Q    Q    E   E   E  E   3x
|-----------------------|---------------------------||
|-----------------------|--------------------------o||
|-----------------------|---------------------------||
|-3--[3]--------------5-|-(5)-----------------------||
|-3-------[2]-[0]-----5-|-(5)--[2]--[2]-[3]-[5]----o||
|-3---------------[3]-5-|-(5)-------------------5---||


  Q  E E Q  Q    E E E E E E Q    Q   Q    E   E   E  E   +W
|--------------|----------------|-----------------------|--------|
|--------------|----------------|-----------------------|--------|
|--------------|----------------|-----------------------|--------|
|-7--7-5-7--7--|-2-3---2-3---5--|-3--[3]--------------5-|-(5)----|
|-7--7-5-7--7--|-2-3---2-3---5--|-3-------[2]-[0]-----5-|-(5)----|
|-7--7-5-7--7--|-2-3---2-3---5--|-3---------------[3]-5-|-(5)----|


 outro
    PM|   PM|             PM|   PM|   PM|
  E S S E S S e. e. E   E S S E S S E S S E E
|---------------------|-----------------------|
|---------------------|-----------------------|
|-2-----2-----5--5--5-|-5-----5-----7-----7S9-|
|-2-----2-----5--4--3-|-3-----3-----5-----5S7-|
|---0-0---0-0---------|---0-0---0-0---0-0-----|
|---------------------|-----------------------|


    PM|   PM|             PM|   PM|
  E S S E S S e. e. E   E S S E S S S S S E +S  E
|---------------------|---------------------------|
|---------------------|---------------------------|
|-2-----2-----5--5--5-|-5-----5-----5S4S2-0-(0)-0-|
|-2-----2-----5--4--3-|-3-----3-----5S4S2-0-(0)-0-|
|---0-0---0-0---------|---0-0---0-0---------------|
|---------------------|---------------------------|


  S S S E +S  E S S S E +S  E   W
|-----------------------------|------*|
|-----------------------------|------*|
|-5S4S2-0-(0)-0-5S4S2-0-(0)-5-|------*|
|-5S4S2-0-(0)-0-5S4S2-0-(0)-5-|-7----*|
|-----------------------------|-7----*|
|-----------------------------|-7----*|



Duration Legend
---------------
W - whole; H - half; Q - quarter; E - 8th; S - 16th; T - 32nd; X - 64th; a - acciaccatura
+ - note tied to previous; . - note dotted; .. - note double dotted
Uncapitalized letters represent notes that are staccato (1/2 duration)
Irregular groupings are notated above the duration line
Duration letters will always appear directly above the note/fret number it represents the
duration for.  Duration letters with no fret number below them represent rests.  Multi-
bar rests are notated in the form Wxn, where n is the number of bars to rest for.  Low
melody durations appear below the staff

Tablature Legend
----------------
 h   - hammer-on
 p   - pull-off
 b   - bend
 pb  - pre-bend
 r   - bend release (if no number after the r, then release immediately)
 /\  - slide into or out of (from/to "nowhere")
 s   - legato slide
 S   - shift slide
 - natural harmonic
[n]  - artificial harmonic
n(n) - tapped harmonic
 ~   - vibrato
 tr  - trill
 T   - tap
 TP  - trem. picking
 PM  - palm muting
\n/  - tremolo bar dip; n = amount to dip
 \n  - tremolo bar down
 n/  - tremolo bar up
/n\  - tremolo bar inverted dip
 =   - hold bend; also acts as connecting device for hammers/pulls
 <> - volume swell (louder/softer)
 x   - on rhythm slash represents muted slash
 o   - on rhythm slash represents single note slash

Misc Legend
-----------
 |  - bar
||  - double bar
||o - repeat start
o|| - repeat end
*|  - double bar (ending)
 :  - bar (freetime)
 $  - Segno
 &  - Coda
Tempo markers -  = BPM(8/16=s8/s16), where s8 = swing 8ths, s16 = swing 16ths

Tap to rate this tab
# A B C D E F G H I J K L M N O P Q R S T U V W X Y Z