Song name
# A B C D E F G H I J K L M N O P Q R S T U V W X Y Z

Lordi - Wake The Snake tab

-------------------------------------------------------------------------------
			     Wake The Snake - Lordi
-------------------------------------------------------------------------------
Tabbed by: Muhat Gandy

Tuning: Standard 
                                                                 x3
e|-------------------------------------------------------------------|
B|-------------------------------------------------------------------|
G|-------------------------------------------------------------------|
D|--2--2--5\4--5\4--7~--5\4--5~----2--2--5\4--5\4--9~--7~--5~--------|
A|--2--2--5\4--5\4--7~--5\4--5~----2--2--5\4--5\4--9~--7~--5~--------|
E|--0--0--3\2--3\2--5~--3\2--3~----0--0--3\2--3\2--7~--5~--3~--------|

e|---------------------------------------------------------------------------|
B|---------------------------------------------------------------------------|
G|--------------------------------------------------9-7----------------------|
D|--2--2--5\4--5\4--7~--5\4--5~----2--2--5\4--5\4-------9-7------------------|
A|--2--2--5\4--5\4--7~--5\4--5~----2--2--5\4--5\4-----------10-9----7\-------|
E|--0--0--3\2--3\2--5~--3\2--3~----0--0--3\2--3\2----------------10----------|
Tap to rate this tab
 
# A B C D E F G H I J K L M N O P Q R S T U V W X Y Z