Lords Of Acid - Pussy tab

-----------------------------------------------------------------------------
			    Lords of Acid - Pussy
-----------------------------------------------------------------------------
Tabbed by: dustyattic

Bass Part:

e|-------------------------------------------------------------------------|
B|-------------------------------------------------------------------------|
G|-------------------------------------------------------------------------|
D|----5------4------3------------------------------------------------------|
A|---------------------------6------3-----------3------3-------------------|
E|-----------------------------------------------------------6-------------|


e|------------------------------------<--|-------------------------13------|
B|---13h15-----13h15-----13h15p13-----<--|---13h15---13h15---13h15----15---|
G|--------------------------------12--<--|---------------------------------|
D|------------------------------------
                        
                    
Tap to rate this tab
 
# A B C D E F G H I J K L M N O P Q R S T U V W X Y Z