Song name
# A B C D E F G H I J K L M N O P Q R S T U V W X Y Z

Loreille - Montreal Canadiens Goal Song tab

The old song from years ago, foolishly replaced with Vertigo. 
Never seen it on here, so just put this together real quick. 
The whole thing can be heard at L'Oreille's site, www.loreille.com
Comments and corrections welcome. GO HABS GO

|--------------------------------------------------------------------|
|-15-15-15--13-11-13-15---13-11-13-----------------------------------|
|--------------------------------------------------------------------|
|--------------------------------------------------------------------|
|--------------------------------------------------------------------|
|--------------------------------------------------------------------|

|--------------------------------------------------------------------|
|--------------------------------------------------------------------|
|------------------------9---5---------------------------------------|
|-7-/9-7--5-2----5----9---5------------------------------------------|
|-7-/9-7--5-2----5----7---3------------------------------------------|
|-5-/7-5--3-0----3---------------------------------------------------|
   

     
Tap to rate this tab
# A B C D E F G H I J K L M N O P Q R S T U V W X Y Z