Song name
# A B C D E F G H I J K L M N O P Q R S T U V W X Y Z

Lorene Drive - A Kiss Wont Make This Better tab

e-------------------------------------------------------|
B-------------------------------------------------------|
G-------------------------------------------------------| 
D-5--5-5--5-8--8-8--8-8--8\4-4-4-4--111-1-1-1-1-1-1-1-1-|
A-5--5-5--5-8--8-8--8-8--8\4-4-4-4--111-1-1-1-1-1-1-1-1-|
E-5--5-5--5-8--8-8--8-8--8\4-4-4-4--111-1-1-1-1-1-1-1-1-|
                           ∙        ∙∙∙ ∙ ∙ ∙   ∙ ∙ ∙ ∙
e-------------------------------------------------------|
B-------------------------------------------------------|
G-------------------------------------------------------| 
D-5--5-5--5-8--8-8--8-8--8\4-4-4-4-1~-------------------|
A-5--5-5--5-8--8-8--8-8--8\4-4-4-4-1~-------------------|
E-5--5-5--5-8--8-8--8-8--8\4-4-4-4-1~-------------------|
                           ∙

Very easy, sounds right,
Just put it along with the song and it should make sense
~rate plz!~
Tap to rate this tab
# A B C D E F G H I J K L M N O P Q R S T U V W X Y Z