Song name
# A B C D E F G H I J K L M N O P Q R S T U V W X Y Z

Loretta Lynn - Darkest Day tab

The Darkest Day
(Loretta Lynn)


INTRO:	
             G                         C
e|-----------3--5--3-----------------------|
B|--------3-----------3--6-6-6-5--4-3------|
G|--0--4-------------------------------5---|
D|-----------------------------------------|
A|-----------------------------------------|
E|-----------------------------------------|

            G           D             G
e|----------3--5--3--------------------------------3---|
B|-------3-----------3--1-1-1-0------------------3-----|
G|--0-4--------------------------3-2-0-------2-3-------|
D|-----------------------------------------------------|
A|-----------------------------------------------------|
E|-----------------------------------------------------|


G				  C
Darlin' when you told me you were leavin'

  G                                  D
I thought that you were only foolin' me

    G	  			 C
But here I am to face old blue tomorrow

       G		   D               G
with a broken heart that's filled with misery


CHORUS
   D                            G
It seems that my world is to an end

     C                                  D
Just dreamin' of things that might have been

   G                           C
Oh why don't that old sunshine bright
  
  G                 D         G
today's the darkest day of my life


GUITAR SOLO (Similar to INTRO)

(oh that's Grady Martin)
             G                         C
e|-----------3--5--3-----------------------|
B|--------3-----------3--6-6-6-5--4-3------|
G|--0--4-------------------------------5---|
D|-----------------------------------------|
A|-----------------------------------------|
E|-----------------------------------------|

            G           D             G
e|----------3--5--3-----------------------------------------3--|
B|-------3-----------3--1-1-1-0-----------------5b r--3--0-----|
G|--0-4--------------------------3-2-0-------------------------|
D|-------------------------------------------------------------|
A|-------------------------------------------------------------|
E|-------------------------------------------------------------|

G				C
Oh how I wish that old sayin' is true

     G                          D
It's always darkest just before dawn

     G				     C
Then I'd know soon I'm gonna see the sunshine

  G                    D               G
I just can't take this darkness on and on


CHORUS
   D                            G
It seems that my world is to an end

     C                                  D
Just dreamin' of things that might have been

   G                           C
Oh why don't that old sunshine bright
  
  G                 D         G      D G
today's the darkest day of my life
Tap to rate this tab
 
# A B C D E F G H I J K L M N O P Q R S T U V W X Y Z