Song name
# A B C D E F G H I J K L M N O P Q R S T U V W X Y Z

Los Apson - Satisfaccion tab

satisfaccion


los apson


TRANSCRIBED BY RUDY GUZMAN


guzman_84@hotmail.com




                       x5                                    
e:-----------------------|
B:-----------------------|
G:-4--4--4-6-7--7--7/6-6-|
D:-x--x--x-x-x--x--x---x-|
A:-2--2--2-4-5--5--5/4-4-|
E:-----------------------|


verse
   no soy nada sin tus besos...                        x2
e:-------------------------------------------------------|
B:-------------------------------------------------------|
G:-----------------------------6--6--6--6--6-6-6-6-------|
D:-2--2--2--2--2-2-2-2-2-------7--7--7--7--7-7-7-7-------|
A:-2--2--2--2--2-2-2-2-2-------7--7--7--7--7-7-7-7-------|
E:-0--0--0--0--0-0-0-0-0--12\--5--5--5--5--5-5-5-5--12\--|


  fue sin ti...                                          
e:-----------------------------------------------------------|
B:-----------------------------------------------------------|
G:-----------------------------------------------------------|
D:---------------------------------------------2-2-2-2-2-2-2-|
A:-----------------2-2-4-2-4-2-2--2-2-2-2-2-2--0-0-0-0-0-0-0-|
E:-0-0-0-0-0-0-0-0----------------0-0-0-0-0-0----------------|


  no soy nada          x9
e:-----------------------|
B:-----------------------|
G:-4--4--4-6-7--7--7/6-6-|
D:-x--x--x-x-x--x--x---x-|
A:-2--2--2-4-5--5--5/4-4-|
E:-----------------------|

  sin tu querer        x2
e:-----------------------|
B:-----------------------|
G:-4--4--4-6-7--7--7/6-6-|
D:-x--x--x-x-x--x--x---x-|
A:-2--2--2-4-5--5--5/4-4-|
E:-----------------------|


  verse
   no soy nada sin tus besos...                        x2
e:-------------------------------------------------------|
B:-------------------------------------------------------|
G:-----------------------------6--6--6--6--6-6-6-6-------|
D:-2--2--2--2--2-2-2-2-2-------7--7--7--7--7-7-7-7-------|
A:-2--2--2--2--2-2-2-2-2-------7--7--7--7--7-7-7-7-------|
E:-0--0--0--0--0-0-0-0-0--12\--5--5--5--5--5-5-5-5--12\--|


  fue sin ti...
e:-----------------------------------------------------------|
B:-----------------------------------------------------------|
G:-----------------------------------------------------------|
D:---------------------------------------------2-2-2-2-2-2-2-|
A:-----------------2-2-4-2-4-2-2--2-2-2-2-2-2--0-0-0-0-0-0-0-|
E:-0-0-0-0-0-0-0-0----------------0-0-0-0-0-0----------------|


  no soy nada          x9
e:-----------------------|
B:-----------------------|
G:-4--4--4-6-7--7--7/6-6-|
D:-x--x--x-x-x--x--x---x-|
A:-2--2--2-4-5--5--5/4-4-|
E:-----------------------|

 
e:-----------------------|
B:-----------------------|
G:-4--4--4-6-7--7--7/6-6-|
D:-x--x--x-x-x--x--x---x-|
A:-2--2--2-4-5--5--5/4-4-|
E:-----------------------|






http://tobbys1.tripod.com/rockandrollfronterizodelos60s/id21.html        website

http://es.wikipedia.org/wiki/Los_Apson                                   wikipedia

http://www.facebook.com/pages/Los-Apson-Boys/105425642824166?sk=wiki     facebook

http://www.youtube.com/watch?v=zxKQBrTN20E                               song

http://www.cduniverse.com/search/xx/music/artist/Los+Apson/a/albums.htm  Discography



hillo son mex

29/04/11
Tap to rate this tab
 
# A B C D E F G H I J K L M N O P Q R S T U V W X Y Z