Song name
# A B C D E F G H I J K L M N O P Q R S T U V W X Y Z

Los Autenticos Decadentes - La Prima Lejana tab

Intro:  A  Amaj7  F#m  D - A  Amaj7  F#m | D - E

    A                       Amaj7
Andaba haciendo dedo por ahi
                        F#m
cuando llegaste con el jeep
D      E
decidiste parar

A                    Amaj7
nunca me podia imaginar
                            F#m
con quien me iba a encontrar
D        E
una prima lejana

D           E    A
que fuerte te pusiste
C#m        F#m
yo no se que comiste
    D
ahora que te veo bien
              E
ya no me quiero bajar

A                        Amaj7
Fuimos a la playa con el auto
                        F#m
y manejaste un largo rato
D            E
hasta cerca del faro

A
luego me dijiste que vos
Amaj7                F#m
maya no traias si podias
D         E
si no me molestaba

D           E          A
Ya que los dos somos primos
C#m    F#m
y que maya no trajimos
D
como dos buenos amigos
        E
nos podemos desnudar

A  Amaj7                F#m
Eeeehhh, la piel llega hacia el mar
F#m7
uuuuhhhhh
D                      E
Eeeehhh, solo las olas te tapan
A  Amaj7          F#m
Eeeehhh, llegaste con el mar
F#m7
uuuuhhhhh
D                          E
Eeeehhh, como la arena con el viento

    A                    Amaj7
¿Como disimular mi excitacion?
                      F#m
¿como bajarme el pantalon?
D        E
para quedar como

 A                      Amaj7
Vos si que problema no tenes
                     F#m
para mostrar tu desnudez
D        E
se me para el corazon

D             E     A
Te estas sintiendo sola
C#m               F#m
me llamas con las manos
D
con el amigo parado
         E
voy corriendo hacia el mar

A  Amaj7                F#m
Eeeehhh, la piel llega hacia el mar
F#m7
uuuuhhhhh
D                      E
Eeeehhh, solo las olas te tapan
A  Amaj7          F#m
Eeeehhh, llegaste con el mar
F#m7
uuuuhhhhh
D                          E
Eeeehhh, como la arena con el viento


Solo:


  A        Amaj7     A7      F#m
E|----------7--9---------5--7-------|
B|--10--10--------9---9--------7----|
G|----------------------------------|
D|----------------------------------|
A|----------------------------------|
E|----------------------------------|

      D                 E
E|--10-12-14--10-12-14--10-12-14--10-12-14---|   RAPIDO
B|-------------------------------------------|
G|-------------------------------------------|
D|-------------------------------------------|
A|-------------------------------------------|
E|-------------------------------------------|


  A       Amaj7     A7      F#m
E|----------7--9---------5--7-------|
B|--10--10--------9---9--------7----|
G|----------------------------------|
D|----------------------------------|
A|----------------------------------|
E|----------------------------------|

     D                  E
E|--17-14-12--17-14-12--17-14-12--17-14-12---|   RAPIDO
B|-------------------------------------------|
G|-------------------------------------------|
D|-------------------------------------------|
A|-------------------------------------------|
E|-------------------------------------------|


E|--10--10---|
B|-----------|
G|-----------|
D|-----------|
A|-----------|
E|-----------|

D                  A
Con las piernas abiertas hasta el sol
D              A
se excita resecandote la piel
D                  A
la sirena y la estrella se encontraron
  E7
y yo que soy humano no me pierdo este regalo

A  Amaj7                F#m
Eeeehhh, la piel llega hacia el mar
F#m7
uuuuhhhhh
D                      E
Eeeehhh, solo las olas te tapan
A  Amaj7          F#m
Eeeehhh, llegaste con el mar
F#m7
uuuuhhhhh
D                          E
Eeeehhh, como la arena con el viento
                                        _
A           Amaj7       F#m    D    E    |
La la lara laaara lara laaaa             | repite hasta
A           Amaj7       F#m    D    E    |  desvanecer
La la lara laaara lara laaaa            _|
Tap to rate this tab
 
# A B C D E F G H I J K L M N O P Q R S T U V W X Y Z