Los Bunkers - Sueo Con Serpientes tab

Sueño Con Serpientes - Los Bunkers
Musica Libre 2010

  Tab TFOTtabs

 
Intro - Verso y toda la cancion.

e|--------------------------------------------------------------------|
B|--------------------------------------------------------------------|
G|--------------------------------------------------------------------|
D|------5----3--------------------------------------------------------|
A|--------5-----5-----------------------------------------------------|
E|---3-------------3--------------------------------------------------|

Esta es la variacion.
e|--------------------------------------------------------------------|
B|--------------------------------------------------------------------|
G|--------------------------------------------------------------------|
D|-----5---3---------5s--7s--10s-5---3--------------------------------|
A|-------5----5--------------------5---5------------------------------|
E|---3-----------3-----------------------3----------------------------|

Este es un riff que sale en la cancion.
e|--------------------------------------------------------------------|
B|--------------------------------------------------------------------|
G|-----5-5---7--------------------------------------------------------|
D|--------------------------------------------------------------------|
A|--------------------------------------------------------------------|
E|--------------------------------------------------------------------|

Suerte con la cancion.

************************************

| /   slide up
| \   slide down
| h   hammer-on
| p   pull-off
| ~   vibrato
| +   harmonic
| x   Mute note
| b   Bend
| pb  Pre-bend
| br  Bend release
| pbr Pre-bend release
| brb Bend release bend

************************************
Tap to rate this tab
 
# A B C D E F G H I J K L M N O P Q R S T U V W X Y Z