Guitaretab - guitar tabs
Song name
# A B C D E F G H I J K L M N O P Q R S T U V W X Y Z

Los Bunkers - Las Cosas Que Cambi Y Dej Por T tab

G    320033 ó 355433
D7   xx0212 ó x57575
Em   022000 ó x79987
Bm   x24432 ó 799777
D    xx0232 ó x57775
D+   xx0332 ó xx8776
C    x23010 ó x35553
Cm   x35543
A#m  x13321 ó 688666
Am   x02210 ó 577555


Intro:
   G  G-A-G  D7 x2
e--7--7-5-7--5-5-5-5-5--|
B--8--8-8-8--7-7-7-7-7--|
G--7--7-7-7--5-5-5-5-5--|
D-----------------------|  Guitarra #2 hace esto
A-----------------------|
E-----------------------|


A)
  G    D7    G          D7                        e----------10-|
  Si pudiera sacarlo de ella                      B-------11----|guitarra #2
  Em            Bm           D - D+ *------------>G----11-------|
  lo podría guardar en un cajón.                  D-12----------|
**G       D7     G           D7
  por las noches abriría los broches
  Em       Bm
  Y podría ver, al fin,
     Dm              C
  el rostro que me hizo feliz
  Cm       G            D7      G **(mas abajo indico que toca la otra guitarra)
  Y podría ver morir la pena en mi.

B)
           D7          G
  No sabes cómo la amo yo,
           D7          G
  no sabes qué me enamoró,
           D7             Em
  no sabes cuánto de ella vive aquí,
      Am           Bm  A#m-Am Cm  D7
  las cosas que cambié y dejé por ti.

C)
  G    D7     G           D7
  Si pudriera moriría con ella,
  Em         Bm        D7   G
  robaría su alma y su corazón.
[ Tab from: http://www.guitaretab.com/l/los-bunkers/60298.html ]
Solo:
   G                  D7              G              D7
e----------------------------------------------------------------------|
B----------------------------------------------------------------------|
G-2/4-4-4-4-2-2-2-2/4-5-5-5-5-3-3-3-2-4--4-4-2-2-4-4-5-5-5-5-3-3-3-0---|
D----------------------------------------------------------------------|

  Em       Bm        D               D+
e-3-----3--2-----2-----5-----5-----5-6--6--6-6-|
B---5--------3-----3/7---7-----7-----7--7--7-7-|
G-----4--------4-----------7-----7---7--7--7-7-|
D----------------------------------------------|

¡Con fierro!

  G       D7       G       D7
e-------------12b--------------12b------|
B-12b--------------12b------------------|
G-----12b-11b----------12b-11b----------|

  Em                Bm
e-/12b-----12b-----------22----22-------|
B------12b-----12b-5/12-----22----22----|
G---------------------------------------|

   D7                 G
e------------------------------|
B-----7---8/9-(10)/11-12-------|
G-5/7---7----------------------|

B)
  No sabes..

A)
  Por las noches...

** G     D7                G     D7
e------------------12-10-------------------12-10------|
B-12b-----------10--------12\-----------10------------|
G-12b--------11-----------12\--------11---------------|
D-12b-----12--------------12\-----12------------------|

   Em     Bm     Dm                 C
e--7b~----7b~--------------12--10-----------10-8---8--|
B--8b~----7b~--------10---------------8---8------8----|
G--9b~----7b~-----10----10----------9---9-------------|
D-----------------------------------------------------|

   Cm      G      D7      G          **
e--------------------------------------|
B--8~----8~~~---8\7~----7/8-8----------|
G--8~----8\7~---7\5~----5/7-7----------|
D--------------------------------------|

Outro = Solo

Un saludo pa todos los fanaticos de los bunkers CHAOOO.
Related for Las Cosas Que Cambi Y Dej Por T tab