Song name
# A B C D E F G H I J K L M N O P Q R S T U V W X Y Z

Los Bunkers - Cancion Para Maana tab

pa los chilenos que les gustan los bunkers 
el Bm7 es asi //224232//
y el E6 //022120//
sydvincent

Intro:


E|--9--9---7--7---4--4---2-0-0-||--9--9---7--7---4--4---2-0-0-|
B|---0--0---0--0---0--0--------||---0--0---0--0---0--0--------|
G|-----------------------------||-----------------------------|
D|-----------------------------||-----------------------------|
A|-----------------------------||-----------------------------|
e|-----------------------------||-----------------------------|


E|--9--9---7--7---4--4---2-0-0-|-2--2-4-5-0-|
B|---0--0---0--0---0--0--------|------------|
G|-----------------------------|------------|
D|-----------------------------|------------|
A|-----------------------------|------------|
e|-----------------------------|------------|




       A
Despertar en las maanas
      E6
no me hace demasiado bien
   G
mirar por la ventana
         F#
ver el cielo oscurecer
   F
pasearme por la calle
        A
que la gente pueda ver
       Bm         Bm7
la montaa de tristezas
       E
que dejaste amanecer.



       A
La ciudad en que marchaste
      E6
las piedras que tire
     G
el sueo que mataste
      F#
la herida que sangre
  F
odi los uniformes
        A
los verdugos del cuartel
    Bm           Bm?
la lucha lleva puesta
        E
la esperanza del atardecer


Coro:


   D             Dmaj7        Bm   Bm7      E  E6 E
Maana habr promesas en mi puerta   para abrir,
   D             Dmaj7           Bm  Bm7      E  E6  E
maana habr una lgrima en mis ojos    para ti.



    A
Los viejos son de lo peor
   E6                            G
nunca tuvieron ni una pisca de razn
              F#                        F
pero a mi los aos no me hicieron muy feliz
               A
recordar es un paso en falso ms
   Bm             Bm7          E
y quin quiere mirarse en un espejo que no quebrar



Coro:


D             Dmaj7         Bm    Bm7     E      E6  E
Maana habr promesas en mi puerta   para abrir,
   D             Dmaj7          Bm   Bm7      E  E6  E
maana habr una lgrima en mis ojos   para ti.



INTRO...


           A
Ahhhhh..., quien agoniz el amor
       E6
dejo camisas que escoger
          G
un par de gafas para ver
         F#
lo que maana pueda parecer
 F
ayer agoniz el amor
          A
la muerte no dej escoger
   Bm           Bm7
y quin puede resucitar
    E
las flores que pisaste ayer


(los mismos acordes)

Demasiados imposibles para no morir feliz
para qu contar estrellas para qu vivir por ti
slo la muerte me puede esconder
nada despaulatina para ti tambin
te sienta demasiado bien.


Coro

  D             Dmaj7         Bm   Bm7    E  E6 E
Maana habr promesas en mi puerta   para ti
  D              Dmaj7         Bm   Bm7    E  E6 E
Maana habr una lgrima en mi ojos   para ti
  D             Dmaj7         Bm   Bm7   E     E6 E
Maana habr promesas en mi puerta   por vivir



uhhhh

E|--9--9---7--7---4--4---2-0-0-||--9--9---7--7---4--4---2-0-0-|
B|---0--0---0--0---0--0--------||---0--0---0--0---0--0--------|
G|-----------------------------||-----------------------------|
D|-----------------------------||-----------------------------|
A|-----------------------------||-----------------------------|
e|-----------------------------||-----------------------------|


E|--9--9---7--7---4--4---2-0-0-|---0--5-0-5-|
B|---0--0---0--0---0--0--------|------------|
G|-----------------------------|------------|
D|-----------------------------|------------|
A|-----------------------------|------------|
e|-----------------------------|------------|

gracias por escoger a sydvincent 
y viva el rock latino
and long life to pink floyd
Tap to rate this tab
# A B C D E F G H I J K L M N O P Q R S T U V W X Y Z