Guitaretab - guitar tabs
Song name
# A B C D E F G H I J K L M N O P Q R S T U V W X Y Z

Los Bunkers - Entre Mis Brazos tab

hola soy yo sydvincent
y aqui esta entre mis brazos

Intro
Am-A#-E- Se repite 2 veces y a la tercera **

ARPEGIO
     Am
e------0---------1--0-----0-------0---------1--0-----0--|
b------1---3--1--0--0--3--0-------1---3--1--0--0--3--0--|
g----------2--2--------2--------------2--2--------2-----|
d-------------------------------------------------------|
a---0--------------------------0------------------------|
e-------------------------------------------------------|

      A#                                       E
e-----1-----------1--------------0--------0--------0----|
b-----3--3--------3--3-----------0--0-----0--0-----0----|
g--------3--3--------3--3-----------1--1-----1--1-------|
d-----------3-----------3--------------2--------2-------|
a--1-----------1----------------------------------------|
e-----------------------------0-------------------------|
  **     EN ESTA PARTE HAREMOS LO SIGUIENTE LE LLAMAREMOS diferencia 1
           A#                                          			 E
e------1----------------------------------------------------------4-5-4------4-------4--|
b---------3------------3----------------------------------------------------------------|
g------------3------------3------3-----------3------------------------------------------|
d-------------------------------------0-----------0----------2---------2-------2--------|
a---1--------------0--------------------------------------------------------------------|
e------------------------------3-----------1-------------0-----------0-------0----------|
[ Tab from: http://www.guitaretab.com/l/los-bunkers/94823.html ]
Y AHORA EL VERSO
 Am                              A#
Siento que en las noches soy un ciego
     E
en busca del cielo
 Am                         A#
marcho lentamente por los sueños
    E
pero no te veo
 Dm                D*
la piel de la verdad
 A*                     E                    Am
se estremece cuando oye tu voz
 Dm             D*
tu imagen seguira
 A*              E           Am
pincelada con dedicacion
  Em   ( diferencia 1 LA PUEDES TOCAR RASGUEANDO)
oh Dios Oh diooooooooooos!!
 Am                        A#
Mira lo que vino a ser mi vida
  E
ohhhhh
 Am                       A#        E
una calle sucia y sin salida
 Dm                      D*
mi mano da el compas
 A*                   E                 Am
de tu larga espera por el sol
 Dm                             D*
tras mi mascara hay mas
   A*                      E          Am
que recuerdos duros de olvidar
 Em   ( VARIACION 1 )
oh no oh nooooo  oh no

CORO
 A           E           F#m            C#m
tu vida, mi vida no se pondran de acuerdo
 Em             F#                     Bm
sabes que no podras dormir entre
              Dm
mis brazos otra vez
 A           E           F#m            C#m
tu vida, mi vida no se pondran de acuerdo
 Em                    F#               Bm
Cuando nos pueden defraudar los sueños
 Dm         ( VARIACION 1)
que tuvimos ayer Oh Oh

 Am                          A#    E
Mira lo que vino a ser mi vida Ohhh ohhhhh
 Am                    A#      E
una calle sucia y sin salida (cuanto esperar)
 Dm               D*
mi mano da el compas
 A*                     E               Am
de tu larga espera por el sol
 Dm                           D*
tras mi mascara hay mas
 A*                        E                 Am
que recuerdos duros de olvidar
 Em    ( diferente 1 )
oh nooo oh noooo oh no!!!

CORO
 A           E           F#m            C#m
tu vida mi, mi vida no se pondran de acuerdo
 Em             F#                     Bm                       Dm
sabes que no podras dormir entre mis brazos otra vez
 A           E           F#m            C#m
tu vida mi vida no se pondran de acuerdo
Em             F#                     Bm
Cuando nos pueden defraudar los sueños
    Dm        Am
que tuvimos ayer

FINAL

    Am
e------0---------1--0-----0-------0---------1--0-----0--|
b------1---3--1--0--0--3--0-------1---3--1--0--0--3--0--|
g----------2--2--------2--------------2--2--------2-----|
d-------------------------------------------------------|
a---0--------------------------0------------------------|
e-------------------------------------------------------|

      A#                      E
e-----1-----------1--------------0--------0--------0----|
b-----3--3--------3--3-----------0--0-----0--0-----0----|
g--------3--3--------3--3-----------1--1-----1--1-------|
d-----------3-----------3--------------2--------2-------|
a--1-----------1----------------------------------------|
e-----------------------------0-------------------------|

D*
       e--1---------------|
       b--2---------------|
       g--2---------------|
       d--0---------------|
       a------------------|
       e------------------|

A*

       e--1---------------|
       b--1---------------|
       g--2---------------|
       d--0---------------|
       a--0---------------|
       e------------------|

Los acordes  .el teclado es Am-A#-E
y termina en Am

sydvincent
bye
Related for Entre Mis Brazos tab