Song name
# A B C D E F G H I J K L M N O P Q R S T U V W X Y Z

Los Bunkers - Papa No Llores Mas tab

Help us improve GuitareTab! Take a short survey!
hi its me syd vincent 
here its 
papa no llores mas
Intro:
 R1
e----------------------------\
b---------------------------- \
g----------------7/9-7~------  \
d-----------------------10-7-  / Dos veces
a-0-4-5-6-7-9-10------------- /
e----------------------------/
 R2
e----------------------------------------------------------------\
b---------------------------------------------------------------- \
g----------------------------------------------------------------  \
d-----------5-6-7--Dos veces------7---7-8-9-10--Dos veces--------  / Dos veces
a-5-5-8-5-8-------------------8-8---8----------------------8-7-6- /
e----------------------------------------------------------------/
 R3
e-12-------12----------------------15-15-14-12-----
b----13b14----13b14--varias veces------------------
g----------------------------------------------14/-
d--------------------------------------------------
a--------------------------------------------------
e--------------------------------------------------
En los acordes A7 y E7 una guitarra hace esto:
  A7       E7
e-------------------------------------------------------------------------|
b-------------------------------------------------------------------------|
g-------------------------------------------------------------------------|
d-----------------------------------------------------------------5-5-4---|
a-----4-------------------------------------------------------4-7-------7-|
e-5-5---5--0-0-7-0-(Tres veces en cada estrofa y despúes)-5-5-------------|

A)
 A7          E7
Hace algunos años atrás,
Los globos eran de verdad
Donde los niños reíamos
de todas las cosas que veíamos

La alegría no dejaba decibrar
con los amigos del que estuviera por acá
tan solo pelotitas en la mente de toda la gente

Intro+Solo

A)
Apenas puedo recordar
ellos llegaron al lugar
destrulleron altos volantines
destrozaron nuestros balancines

pajaritos nuevos llegaron
pajaritos nuevos cantaron
pajaritos nuevos nos pillaron
nos vendaron,los amigos se llevaron

Coro:
C5 B5 C5 D5-C5 B5 C5 D5
Vamos papá! no llores más
ya los soldados se marcharán (2 Veces)

Intro+Solo

A)
Hace algunos años atrás,
ellos llegaron al lugar
destrulleron altos volantines
ensuciaron nuestros balancines

Los perros corrieron por las calles
coreando la rabia de dios padre
los niños que veían jugar
¡Nunca más volvieron al lugar!

Coro...fin.

Acordes usados:

 A7      E7      C5     B5     D5
e-9-|   e-10-|  e-x-|  e-x-|  e-x-
b-8-|   b-9--|  b-x-|  b-x-|  b-x-
g-9-|   g-7--|  g-5-|  g-4-|  g-7-
d-7-|   d-9--|  d-5-|  d-4-|  d-7-
a-x-|   a-x--|  a-3-|  a-2-|  a-5-
e-x-|   e-x--|  e-x-|  e-x-|  e-x-

bye
long life to pink floyd 
viva el rock latino
sydvincent
Related for Papa No Llores Mas tab