Los Concorde - Rompecabezas tab

Esta canción la saque de oído pero es muy parecido a como debería sonar.
No se si sea el bajo o sea guitarra pero yo lo toco en la guitarra.
Críticas y sugerencias: fer_buddy@hotmail.com

h=Hammer on

E|------------------------------------------------------------|
B|------------------------------------------------------------|
G|------------------------------------------------------------|
D|---------------0h2-----------0h2-----------0h2----------0h2-|  x3
A|-----3-3-3-3-3-----2-2-2-2-2--------------------------------|
E|---------------------------------0-0-0-0-0-----0-0-0-0-0----|

Practicamente eso es todo el intro y se repite unas 3 veces más... creo.
El final es casi lo mismo solo que cambia así:

E|-----------------------------------------|
B|-----------------------------------------|
G|-----------------------------------------|
D|---------------0h2--------------0-h-2----|
A|-----3-3-3-3-3-----2-2--2--2--2----------|
E|---------------------------------------0-|

Espero y les guste por que a mi me pareció aceptable...
Tap to rate this tab
 
# A B C D E F G H I J K L M N O P Q R S T U V W X Y Z