Song name
# A B C D E F G H I J K L M N O P Q R S T U V W X Y Z

Los Convertibles - Y Yo Tambien tab

E|--------------3--3--|
B|--1--1--1--1--3--3--|
G|--2--2--------------|
D|--2--2--2--2--------|eso es casi todo pero tambien se puede tocar asi
A|--------3--3--2--2--|y suena mas cool
E|--------------3--3--|(falta otra parte)


E|-----0--------0-----------3--3--3--3--|
B|-----1--------1-----------3-----3--3--|
G|-----2--------0-----------0-----------|
D|--------------------------------------|
A|--0-----0--3-----------2-----2--2--2--|
E|-----------------0--3--------3--3--3--| asi me gusta tocar el principio
suena mejor

la otra parte es

E|-----------|
B|-----------|
G|-----------|
D|-----8--5--|
A|--5--6--3--|
E|--3--------|
asi se toca la parte q el cantante dice auu aa aaaa aaa y el coro


yo la toco asi

E|-----------|
B|-----------|
G|-----8--5--|
D|--5--8--5--|
A|--5--6--3--|
E|--3--------| esa parte (el coro y la parte de auu) porque suena mejor para mi

y las liricas son estas yo las saque de oido
espero q les guste

Los convertibles

Yo sentado aqui en mi silla
el tiempo viene y el tiempo va
el escenario no es lo mismo
un estupendo retardar
nunca en el sitio indicado
siempre buscando a donde estar
y aun yo sigo aqui sentado
observandote escarvar
si en esta tumba hay un espacio para dos pues yo tambien
parece que la estoy pasando mal
perdoname, por todos los pecados que tendre
que cometer
auuuuuu aaaaaaaaa aaaaaa aaaaaaaa
auuuuuu aaaaaaaaa aaaaaa aaaaaaaa
auuuuuu aaaaaaaaa aaaaa aaaaaaaa
auuuuu aaaaaa aaaaaaaaaaa aaaaaaa
Voy tambaliando entre paredes
voy tropesandome al andar
ya mis palabras no se entienden
se an vuelto aire sin sonar
diran que estoy un poco hido
que no estoy aqui en realidad
(pero) soy el inicio diferente
soy mi proposito al cantar
si en esta tumba hay un espacio para dos pues tu tambien parece que la estas pasando igual
y yo aligual paresco ser esclavo de ilusion
no hay conclusion
yeah
auuuuuu aaaaaaa aaaaaaa aaaaaaa
auuuuu aaaaaaa aaaaaaa aaaaaaaaaa
auuuuu aaaaaaa aaaaaaaaaa aaaaaa
auuuuu aaaaaa aaaaaaaaa aaaaaa
auuuuu aaaaaaaa aaaaaaa aaaaaaaa
auuuu aaaaaaaa aaaaa aaaaaaa
auuuuu aaaaaaaaa aaaaa aaaaaaa
auuuuuuuu aaaaaaa aaaaaaa aaaaaaa
(murmullos del cantante)
Tap to rate this tab
# A B C D E F G H I J K L M N O P Q R S T U V W X Y Z