Song name
# A B C D E F G H I J K L M N O P Q R S T U V W X Y Z

Los Crudos - Las Madres Lloran tab

			     Las Madres Lloran - Los Crudos
----------------------------------------------------------------------------


Tuning:Standard


Las Madres lloran porke pierden los hijo!!!!!!

e|----------------------------------------|
B|----------------------------------------|
G|------9-9--7-7-7-7----------------------|
D|-7-7--9-9--7-7-7-7-----4 times----------|
A|-7-7--7-7--5-5-5-5----------------------|
E|-5-5------------------------------------|

2nd part
e|-------------------------------------------------------|
B|-------------------------------------------------------|
G|------8-9-9-9-9-------7-7-7-7--------------------------|
D|-7-7--8-9-9-9-9--7-7--7-7-7-7--------------------------|
A|-7-7--6-7-7-7-7--7-7--5-5-5-5--------------------------|
E|-5-5-------------5-5-----------------------------------|

PROGRESSION
1st part
2nd part
1st part
2nd part
1st part
1st part



Los pierden en la violencia
Los pierden en la ingnorancia
No se puede controlar
La perdida de los hijos keridos
Los hijos hijos han desaparecido
o los encuentran muertos
victima de un gobierno podrido
en este pais los hijos se matan ellos mismos

Es una falta de educacion
Es una falta de respeto
Es una falta de kerer vivir
Es una falta de humanidad


******
TRANSLATION
******
The mothers cry because they lose their sons
They lose them in violence
Lose them in ignorance
They have no control
They lose thier loved sons
The desperate childern
They find them dead
Victims of the government
In this land where children kill their own

Education is to blame
Respect is to blame
Wanting to live is to blame
Humanity is to blame

*****
Tap to rate this tab
 
# A B C D E F G H I J K L M N O P Q R S T U V W X Y Z