Song name
# A B C D E F G H I J K L M N O P Q R S T U V W X Y Z

Los Crudos - Levantate tab

			     LEVANTATE - Los Crudos
----------------------------------------------------------------------------


Tuning:Standard

*clicks*
*bass*

1ST PART
e|------------------------------------------------------|
B|------------------------------------------------------|
G|--------------------------5-5-4-4---------------------|
D|-2-2-2-2-2-2-2-2-5-5-5-5--5-5-4-4---------------------|
A|-2-2-2-2-2-2-2-2-5-5-5-5--3-3-2-2---------------------|
E|-0-0-0-0-0-0-0-0-3-3-3-3------------------------------|

2ND PART
e|------------------------------------|
B|------------------------------------|
G|-9-9-------------7-7----------------|
D|-9-9-9-9-7-7-7-7-7-7----------------| REPEAT THEM BOTH AS NECESSERY
A|-7-7-9-9-7-7-7-7-5-5----------------| TILL THE END OF THE SONG.
E|-----7-7-5-5-5-5--------------------|
Tap to rate this tab
# A B C D E F G H I J K L M N O P Q R S T U V W X Y Z