Song name
# A B C D E F G H I J K L M N O P Q R S T U V W X Y Z

Los Crudos - Thats Right Were That Spic Band tab

            That's Right We're That Spic Band - Los Crudos
----------------------------------------------------------------------------

Tuning:Standard

*FEEDBACK*

THAT'S RIGHT MOTHER FUCKER!!!
WE'RE THAT SPIC BAND!!!

VERSE                               FILLS
e|---------------------------------|------------|
B|---------------------------------|------------|
G|----------5-5-5-5--4-4-2-2-------|------------|
D|-6-6-2-2--5-5-5-5--4-4-2-2-------|--3/-6-\2---|
A|-6-6-2-2--3-3-3-3--2-2-0-0-------|----------3-|
E|-4-4-0-0-------------------------|------------|

CHORUS
e|--------------------------------------------|
B|--------------------------------------------|
G|-------------------5-5-xx--REPEAT TWICE-----|
D|---6-xxx-6-xxxxxx--5-5-xx-------------------|
A|---6-xxx-6-xxxxxx--3-3-xx-------------------|
E|---4-xxx-4-xxxxxx---------------------------|

REPEAT ALL AS NECESSERY

/////=slide up
\\\\\=slide down
xxxxx=scratch
Tap to rate this tab
# A B C D E F G H I J K L M N O P Q R S T U V W X Y Z