Song name
# A B C D E F G H I J K L M N O P Q R S T U V W X Y Z

Los Crudos - Eliminacion tab

	              Eliminacion - Los Crudos
---------------------------------------------------------------------------

Tuning:Standard


INTRO/VERSE

e|-------------------------------------------|
B|-------------------------------------------|
G|-10-10-------------------10----------------| 
D|-10-10-8-8--10-10-10-----10--8-8--10-10-10-|
A|-8--8--8-8--10-10-10------8--8-8--10-10-10-|
E|-------6-6---8--8--8---------6-6---8--8--8-|


CHORUS

e|-----------------------------------|
B|-----------------------------------|
G|--7-7-----7-7-----7-7-----9-9-9-9--| 
D|--7-7-7-7-7-7-7-7-7-7-7-7-9-9-9-9--|
A|--5-5-7-7-5-5-7-7-5-5-7-7-7-7-7-7--|
E|------5-5-----5-5-----5-5----------|


PROGRESSION
INTRO/VERSE-X4
CHORUS-x1
VERSE-x2
CHORUS-x1
VERSE-x1
Tap to rate this tab
# A B C D E F G H I J K L M N O P Q R S T U V W X Y Z