Song name
# A B C D E F G H I J K L M N O P Q R S T U V W X Y Z

Los Crudos - Cipayos Traidores Y Vendidos tab

             Cipayos, Traidores Y Vendidos - Los Crudos
----------------------------------------------------------------------------


Tuning:Standard

*CLICKS*
*FEEDBACK*

e|-------------------|
B|-------------------|
G|-4-4-4-------------| 6 TIMES
D|-4-4-4--5-5-5-5----|
A|-2-2-2--5-5-5-5----|
E|--------3-3-3-3----|


e|--------------------|
B|--------------------|
G|-7-xx-7-xx-7-xx-7---|
D|-7-xx-7-xx-7-xx-7---|
A|-5-xx-5-xx-5-xx-5---|
E|--------------------|


e|-------------------|
B|-------------------|
G|-4-4-4-------------| 4 TIMES
D|-4-4-4--5-5-5-5----|
A|-2-2-2--5-5-5-5----|
E|--------3-3-3-3----|


e|----------------------|
B|----------------------|
G|-7-xx-7-xx-7/14-------|
D|-7-xx-7-xx-7/14-------|
A|-5-xx-5-xx-5/12-------|
E|----------------------|


e|-------------------|
B|-------------------|
G|-4-4-4-------------| 8 TIMES
D|-4-4-4--5-5-5-5----|
A|-2-2-2--5-5-5-5----|
E|--------3-3-3-3----|


e|-------------------------|
B|-------------------------|
G|-7-xx-7-xx-7-xx-7-xx-----|
D|-7-xx-7-xx-7-xx-7-xx--5--|
A|-5-xx-5-xx-5-xx-5-xx--5--|
E|----------------------3--|


Tap to rate this tab
# A B C D E F G H I J K L M N O P Q R S T U V W X Y Z