Song name
# A B C D E F G H I J K L M N O P Q R S T U V W X Y Z

Los Crudos - Asesinos tab

Los Crudos

Asesinos

tabbed by fernando piedra, winston hansbugerking and einstein

|-----------------------------------------|
|-----------------------------------------|
|-2222------55555555----------------------| x5
|-2222-2222-55555555----------------------| 
|-0000-2222-33333333----------------------|
|------0000-------------------------------|


|-----------------------------------------|
|-----------------------------------------|
|-55-66-55-66-66-66-----------------------| x2
|-55-66-55-66-55-66-6666------------------|
|-33-44-33-44-33-44-6666------------------|
|-------------------4444------------------|


|-----------------------------------------|
|-----------------------------------------|
|-2222------55555555----------------------| x4
|-2222-2222-55555555----------------------| 
|-0000-2222-33333333----------------------|
|------0000-------------------------------|


|-----------------------------------------|
|-----------------------------------------|
|-55-66-55-66-66-66-----------------------| x2
|-55-66-55-66-55-66-6666------------------|
|-33-44-33-44-33-44-6666------------------|
|-------------------4444------------------|

bass solo thingy

|-----------------------------------------|
|-----------------------------------------|
|-55-66-55-66-66-66-----------------------| 
|-55-66-55-66-55-66-6---------------------|
|-33-44-33-44-33-44-6---------------------|
|-------------------4---------------------|
Tap to rate this tab
# A B C D E F G H I J K L M N O P Q R S T U V W X Y Z