Song name
# A B C D E F G H I J K L M N O P Q R S T U V W X Y Z

Los Crudos - Illegal Y Que tab

Help us improve GuitareTab! Take a short survey!
Well here is one of my favorite songs from Los Crudos

e|-----12-12-12-12-12-12-12-12-12-12-12-12-12-12-|
B|-----------------------------------------------|
G|-----------------------------------------------|
D|-----------------------------------------------|
A|-----------------------------------------------|
E|-----------------------------------------------|


e|-----------------------------------------------|
B|-----------------------------------------------|
G|-----------------------------------------------|
D|-3-3-3-----8-8-8-----6-6-6-6-6-----------------|  X4
A|-1-1-1-----8-8-8-----6-6-6-6-6-----------------|
E|-1-1-1-----6-6-6-----4-4-4-4-4-----------------|

e|-----------------------------------------------|
B|-----------------------------------------------|
G|-----------------------------------------------|
D|-10-10-10-----11-11-11-----7-7-7-7-7-----------|  X4
A|-10-10-10-----11-11-11-----7-7-7-7-7-----------|
E|--8--8--8------9--9--9-----5-5-5-5-5-----------|


e|-----------------------------------------------|
B|-----------------------------------------------|
G|-----------------------------------------------|
D|-3-3-3-----8-8-8-----6-6-6-6-6-----------------|  X4
A|-1-1-1-----8-8-8-----6-6-6-6-6-----------------|
E|-1-1-1-----6-6-6-----4-4-4-4-4-----------------|

e|-----------------------------------------------|
B|-----------------------------------------------|
G|-----------------------------------------------|
D|-10-10-10-----11-11-11-----7-7-7-7-7-----------|  X4
A|-10-10-10-----11-11-11-----7-7-7-7-7-----------|
E|--8--8--8------9--9--9-----5-5-5-5-5-----------|


e|-----12-12-12-12-12-12-12-12-12-12-12-12-12-12-|
B|-----------------------------------------------|
G|-----------------------------------------------|
D|-----------------------------------------------|
A|-----------------------------------------------|
E|-----------------------------------------------|

Simple and tight song
Related for Illegal Y Que tab