Song name
# A B C D E F G H I J K L M N O P Q R S T U V W X Y Z

Los De Adentro - Nubes Negras tab

U can search me on facebook felipe botero

Intro

E-3-----2---0-----0-------0----------------------------0-------3-------|
B---0-----0---0-------0h1---0---3-----1---0-----------3---3------0-----|
G-----0-------------0---------0---0-----0---0----2--2-------2------0---|
D-2---------------------------------0--------------------------2-------|
A-----------------3----------------------------------------------------|
E-------------------------------3----------------2---------------------|

E-2h3p2--0-------0------------------0--------0------2-----3-|
B----------0h1-----0----3-----0-1-3--------3---3-----3------|
G--------------------0----0h2------------2-------2-----2----|
D--------------------------------------0------------------2-|
A--------3--------------------------------------------------|
E-----------------------3-----------------------------------|

here start the keyboard and the guitar do this

  Em            C             G             D9
E-0-----0-----|-0-----0-----|-3-----3-----|-0-----0-----|
B---0-----0---|---1-----1---|---3-----3---|---3-----3---|
G-----0-----0-|-----0-----0-|-----0-----0-|-----2-----2-|
D-------------|-------------|-------------|-------------|
A-------------|-3-----------|-------------|-------------|
E-0-----------|-------------|-3-----------|-2-----------|
   Moriría por ti

  Em            C             G             D
E-0-----0-----|-0-----0-----|-3-----3-----|-2-----2-----|
B---0-----0---|---1-----1---|---3-----3---|---3-----3---|
G-----0-----0-|-----0-----0-|-----0-----0-|-----2-----2-|
D-------------|-------------|-------------|-0-----------|
A-------------|-3-----------|-------------|-------------|
E-0-----------|-------------|-3-----------|-------------|
   Por ti movería cielo y tierra, si pudiera

  Em            C             G             D
E-0-----0-----|-0-----0-----|-3-----3-----|-2-----2-----|
B---0-----0---|---1-----1---|---3-----3---|---3-----3---|
G-----0-----0-|-----0-----0-|-----0-----0-|-----2-----2-|
D-------------|-------------|-------------|-0-----------|
A-------------|-3-----------|-------------|-------------|
E-0-----------|-------------|-3-----------|-------------|
  Cuanto daría por tenerte a mi lado

  Am            C             G             D9
E-0-----0-----|-0-----0-----|-3-----3-----|-0-----0-----|
B---1-----1---|---1-----1---|---3-----3---|---3-----3---|
G-----2-----2-|-----0-----0-|-----0-----0-|-----2-----2-|
D-------------|-------------|-------------|-------------|
A-0-----------|-3-----------|-------------|-------------|
E-------------|-------------|-3-----------|-2-----------|
  Sin ti me sentiría acabado


do this riff


e-----------------|
B-----------------|
G-----------------|
D-----------------|
A----0-3----------|
E--------3-2-0----|
Verso 1

Em         C         G   D9
 Ya la han visto por ahí
Em              C            G           D9
 Siempre tan distante he intocable como siempre
Em       C          G              D9
 Eres el cielo el infierno de mis sueños
Am          C           G   B B7
 Y te he soñado tantas veces

Coro
Em    C            G       D
Nubes negras sobre mi, corazón
Em    C          G             D
Nubes negras sin ti, todo se acabaría
Em    C            G       D
Nubes negras sobre mi, corazón
Em    C          G      D    Em
Nubes negras sin ti me moriría


Verso2

Em     C             G    D9
 No podría estar sin ella
 Riff
 G-----0h2—2/4-2-----|
 D-0h2-----------0-2-|

Em     C          G  D9
 Me morirá del dolor,
Em
 No podría soportarlo,
 Riff
 E------8-8-7-7-7-5-5------|
 B------8-8-7-7-7-5-5------|

Em         C            G  D9
 Cuando no siento su calor
Am         C            G  B B7
 Cuando no siento su calor

Coro
Em    C            G       D
Nubes negras sobre mi, corazón
Em    C          G             D
Nubes negras sin ti, todo se acabaría
Em    C            G       D
Nubes negras sobre mi, corazón
Em    C          G      D    Em
Nubes negras sin ti me moriría


En esta parte del punteo las notas se tocan dos veces,
es decir dos ciclos por cada nota


  Am                           C      G
E----------------------------------------------------12-10-------|
B------12h13-13-13-12-10-13-12-----------------8/12--------12-10-|
G------------------------------12-9--5/7-7-9-7-------------------|
D----------------------------------------------------------------|
A----------------------------------------------------------------|
E----------------------------------------------------------------|

  D
E-----10-----8-----7-----5----3-|
B-5/7----3/5---3/5---3/5---1/3--|
G-------------------------------|
D-------------------------------|
A-------------------------------|
E-------------------------------|

C                   G               Am
Huuuuuuuuu estoy cansado del juego
               C
No lo puedo soportar

Coro
Em    C            G       D
Nubes negras sobre mi, corazón
Em    C          G             D
Nubes negras sin ti, todo se acabaría
Em    C            G       D
Nubes negras sobre mi, corazón
Em    C          G      D    C5
Nubes negras sin ti me moriría
Tap to rate this tab
 
# A B C D E F G H I J K L M N O P Q R S T U V W X Y Z