Song name
# A B C D E F G H I J K L M N O P Q R S T U V W X Y Z

Los Difuntos - Day And Night tab

Los Difuntos - Day And Night
-------------------------------------------------------------------------------
Tabbed by:Luis
Email:goingdown2die@yahoo.com

Tuning:EADGBe

   Intro
e|--10------10------10----------------------------------|
B|--10------11------10----------------------------------|
G|--10------12------10----------------------------------|
D|--12------12------12----------------------------------|
A|--0---------------------------------------------------|
E|------------------------------------------------------|

e|------------------------------------------------------|
B|--------10-11-10--------------10-11/1-----------------|
G|-----10----------10--------10-------------------------|
D|--12----------------12--12----------------------------|
A|------------------------------------------------------|
E|------------------------------------------------------|

e|-------------------------------------------------10---|
B|--------10-11-10--------10-11-10-----------------10---|
G|-----10----------10---------------12-10-9-10-14--10---|
D|--12----------------14---------------------------12---|
A|-------------------------------------------------0----|
E|------------------------------------------------------|

  Verse  
e|--10--10--10--5-----10--10--5--5--10------------------|
B|--10--11--10--5-----10--11--6--5--10------------------| 
G|--10--12--10--6-----10--12--7--6--10------------------|
D|--12--12--12--7-----12--12-----7--12------------------|
A|------------------------------------------------------|
E|------------------------------------------------------|

  Chorus
e|--10--10--5--10---10--10--5---------------------------|
B|--11--10--5--10---11--10--5---------------------------|
G|--12--10--6--10---12--10--6---------------------------|
D|------12--7--12-------12--7---------------------------|
A|------------------------------------------------------|
E|------------------------------------------------------|

 Verse  
e|--10--10--10--5-----10--10--5--5--10------------------|
B|--10--11--10--5-----10--11--6--5--10------------------| 
G|--10--12--10--6-----10--12--7--6--10------------------|
D|--12--12--12--7-----12--12-----7--12------------------|
A|------------------------------------------------------|
E|------------------------------------------------------|

  Chorus
e|--10--10--5--10---10--10--5---------------------------|
B|--11--10--5--10---11--10--5---------------------------|
G|--12--10--6--10---12--10--6---------------------------|
D|------12--7--12-------12--7---------------------------|
A|------------------------------------------------------|
E|------------------------------------------------------|
 
 
 Bridge
e|--10--------10----------------------------------------|
B|--10--------11----------------------------------------|
G|--10--10-9--12----------------------------------------|
D|--12--10-9--12----------------------------------------|
A|------8--7--------------------------------------------|
E|------------------------------------------------------|


Verse  
e|--10--10--10--5-----10--10--5--5--10------------------|
B|--10--11--10--5-----10--11--6--5--10------------------| 
G|--10--12--10--6-----10--12--7--6--10------------------|
D|--12--12--12--7-----12--12-----7--12------------------|
A|------------------------------------------------------|
E|------------------------------------------------------|

  Chorus
e|--10--10--5--10---10--10--5---------------------------|
B|--11--10--5--10---11--10--5---------------------------|
G|--12--10--6--10---12--10--6---------------------------|
D|------12--7--12-------12--7---------------------------|
A|------------------------------------------------------|
E|------------------------------------------------------|

Bridge
e|--10--------10----------------------------------------|
B|--10--------11----------------------------------------|
G|--10--10-9--12----------------------------------------|
D|--12--10-9--12----------------------------------------|
A|------8--7--------------------------------------------|
E|------------------------------------------------------|

  Outro
e|------------------------------------------------------|
B|--------10-11-10--------------10-11/1-----------------|
G|-----10----------10--------10-------------------------|
D|--12----------------12--12----------------------------|
A|------------------------------------------------------|
E|------------------------------------------------------|

e|------------------------------------------------------|
B|--------10-11-10--------10-11-10----------------------|
G|-----10----------10---------------12-10-9-10-14-------|
D|--12----------------14--------------------------------|
A|------------------------------------------------------|
E|------------------------------------------------------|

e|--10----------10-13-12-10-----------------------------|
B|--10-10-11-10-------------10-11-----------------------|
G|--10----------------------------9-10-12-10-9----------|
D|--12-----------------------------------------12-------|
A|------------------------------------------------------|
E|------------------------------------------------------|
   
e|--10-12-13-12-----------------------------------------|
B|--------------10-11-13-11-10-----------------13-12-11-|
G|-----------------------------9-10-12-12-10-9----------|
D|------------------------------------------------------|
A|------------------------------------------------------|
E|------------------------------------------------------|

e|--10-12-13-12---------------------10------------------|
B|--------------10-11-13-11-10------10------------------|
G|------------------------------9---10------------------|
D|----------------------------------12------------------|
A|------------------------------------------------------|
E|------------------------------------------------------|

 Not 100% accurate. I rushed some of it so it needs little 
adjustments. Good song 
www.los-difuntos.com
 
| /  slide up
| \  slide down
| h  hammer-on
| p  pull-off
| ~  vibrato
| +  harmonic
| x  Mute note
Tap to rate this tab
 
# A B C D E F G H I J K L M N O P Q R S T U V W X Y Z