Song name
# A B C D E F G H I J K L M N O P Q R S T U V W X Y Z

Los Esquizitos - La Punk tab

la punk


los esquizitos


TRANSCRIBED BY RUDY GUZMAN


guzman_84@hotmail.com




                                               
e:------------------------|
B:------------------------|
G:------------------------|
D:-10-10--------7-7-------|
A:-8--8--10-10--5-5--8-8--|
E:-------8--8--------6-6--|

  verse
e:------------------------|
B:------------------------|
G:------------------------|
D:-10-10--------7-7-------|
A:-8--8--10-10--5-5--8-8--|
E:-------8--8--------6-6--|

                                          x2
e:------------------------------------------|
B:------------------------------------------|
G:------------------------------------------|
D:-10--10-10--------------------------------|
A:-8---8--8---10--10-10--12--12-12--8--8-8--|
E:------------8---8--8---10--10-10--6--6-6--|



e:------------------------------------------|
B:------------------------------------------|
G:------------------------------------------|
D:-10---------------------------------------|
A:-8----------10---------12---------8-------|
E:------------8----------10---------6-------|


e:------------------------|
B:------------------------|
G:------------------------|
D:-10-10--------7-7-------|
A:-8--8--10-10--5-5--8-8--|
E:-------8--8--------6-6--|

  verse
e:------------------------|
B:------------------------|
G:------------------------|
D:-10-10--------7-7-------|
A:-8--8--10-10--5-5--8-8--|
E:-------8--8--------6-6--|



http://www.losesquizitos.com/                                       website

http://es-es.facebook.com/pages/Los-Esquizitos/102210404833         facebook

http://www.myspace.com/losesquizitos                                myspace

http://twitter.com/#!/esquizitos                                    twitter



hillo son mex

29/07/11
Tap to rate this tab
 
# A B C D E F G H I J K L M N O P Q R S T U V W X Y Z