Guitaretab - guitar tabs
Song name
# A B C D E F G H I J K L M N O P Q R S T U V W X Y Z

Los Fastidios - Amicifriends tab

--------------------------------------------------------------------

Band:  Los Fastidios
Song:  Amici/Friends
Album: Guardo Avanti (KOB/Mad Butcher Records)

Transcribed by Andreas Karlsson (Feb 28, 2007)

--------------------------------------------------------------------

The opening and closing tracks on "Guardo Avanti" are basically the
same song. The chords and melody are identical, but "Friends" is in
6/8 time instead of 4/4.


CHORDS:

     C5  G5  F5  A5
 e|-----------------|
 B|-----------------|
 G|--5--------------|
 D|--5---5---3---7--|
 A|--3---5---3---7--|
 E|------3---1---5--|


 \ : slide down

Standard tuning

--------------------------------------------------------------------

*** AMICI ***


   C5  G5  F5  A5 G5
   C5  G5  F5  A5 G5
   C5 (strum once & pause)

   C5              G5         F5            A5      G5
    Quanti amici ritrovo - in ogni paese in ogni cittÓ
   C5              G5     F5                A5      G5
    Quanti amici rivedo - ogni concerto una festa sarÓ

    F5              G5               C5                  F5
   Amici sinceri di oggi e di ieri - pronto a brindare sar˛
    F5              G5            C5  F5  G5
   Amici chi sono sicuro mai perderˇ

   F5       C5  F5  G5
   Mai perder˛
   F5       C5 (strum once & mute)
   Mai perder˛


--------------------------------------------------------------------

*** FRIENDS ***


INTRO:

   C5 (slight p.m.)


VERSE/CHORUS:

   C5                      G5        F5               A5    G5
   How many friends I will meet - in every country in every town
   C5                      G5    F5            A5         G5
   How many friends I will see - every gig big party will be

   F5       G5             C5                 F5
   Longlife real friends - I will be ready to drink
   F5                   G5           C5  F5  G5  F5
   The real friends I'm sure I never lose


[Repeat VERSE/CHORUS]


  (F5)     C5  F5  G5  F5  C5 (strum once & pause)
   I never lose


[Repeat VERSE/CHORUS]


SOLO:
[ Tab from: http://www.guitaretab.com/l/los-fastidios/85807.html ]
   C5          G5            F5          A5    G5
e|-------------------------|-------------------------|
B|-----------5-------------|-6-6-5-------5-5-6-------|
G|-5-5-5-5-7---7---------7-|-------5-5-5-------7-----|
D|-------------------------|-------------------------|
A|-------------------------|-------------------------|
E|-------------------------|-------------------------|

   C5          G5            F5          A5    G5
e|-------------------------|-------------------------|
B|---------5---------------|-6-6-5-------5-5-6-------|
G|-5-5-5-5---5-7---------7-|-------5-5-5-------7-----|
D|-------------------------|-------------------------|
A|-------------------------|-------------------------|
E|-------------------------|-------------------------|

   F5          G5            C5          F5
e|-------------------------|-------------------------|
B|-------------------------|-------------------------|
G|\2---------2-------2-----|-------------------------|
D|---------3---5---------3-|-5-----2-3-5-------------|
A|-------------------------|-------------3-----------|
E|-------------------------|-------------------------|

   F5          G5            C5    F5    G5    F5
e|-------------------------|-------------------------|
B|-------------------------|-------------------------|
G|-2---------2-4-----------|-5-------------------7-4-|
D|---------3---------5-----|-------------------------|
A|-------------------------|-------------------------|
E|-------------------------|-------------------------|

   C5    F5    G5    F5      C5
e|-------------------------|-------------
B|-------------6-5---6-8---|-------------
G|-5---------------7-----7-|-5~~hold~~~~~
D|-------------------------|-------------
A|-------------------------|-------------
E|-------------------------|-------------
                            (How many friends...)

[Repeat VERSE/CHORUS]

  (F5)
   I never...

   C5                G5      F5               A5       G5
   La la la la la la la   la la la la la   la la la la la
   C5                G5      F5               A5       G5
   La la la la la la la   la la la la la   la la la la la

   F5       G5             C5                 F5
   Longlife real friends - I will be ready to drink (with you!)
   F5                   G5           C5  F5  G5
   The real friends I'm sure I never lose

   F5      C5  F5  G5
   I never lose
   F5      C5 (strum once & pause)
   I never lose


[Repeat VERSE/CHORUS] (w/ handclaps only)

   I never lose
   I never lose

--------------------------------------------------------------------
Related for Amicifriends tab