Song name
# A B C D E F G H I J K L M N O P Q R S T U V W X Y Z

Los Hermanos - Ana Julia tab

los hermanos
ana julia
by lora "macho do mundo"  loratenor@hotmail.com 
solo
 
 (--------x2------------)
|--------------------------------------|
|--------------------------------------|
|------------------------9-9-9-11-9----|
|--------------------------------------|
|--7-7-7-9-7-7-7-7-9-7-6---------------|
|--------------------------------------|

|-----------------------------------------|
|----------------------------5-4----------|
|--9-9-9-11-9-8-9----------------4-6-4-2-4|
|-----------------------------------------|
|-------------------/2-4-2-4--------------|
|-----------------------------------------|

|---------12-11-------11-12-14-14-14-14-14|
|---------------12-14---------------------|
|-----------------------------------------|
|-----------------------------------------|
|-----------------------------------------|
|-7-9-7-9---------------------------------|

It may
not be perfect, this was tabbed from playing by ear, but it sounds good to me, and it's 
how I've been playing it for a long time.

Enjoy...

loratenor@hotmail.com 
Tap to rate this tab
 
# A B C D E F G H I J K L M N O P Q R S T U V W X Y Z