Song name
# A B C D E F G H I J K L M N O P Q R S T U V W X Y Z

Los Hermanos - Morena chords

Highlighted       Show chord diagrams
INTRO: D7M Em7 (4x) 

eb|------------------5/7-9-7------|
Bb|--8-7---7---------5/7-9-7------|
Gb|------9------------------------|

D        D7M 
É, morena, tá tudo bem 
Em7             G              A7    Gb°       F7M     
Sereno é quem tem a paz de estar em paz com Deus 
Bb         F7+ Bb                 Dm7      Gm7 
Pode rir agora   que o fio da maldade se enrola. 
 
Bm7                        
Pra nós todo amor do mundo 
[ch]Gb7/Bb[/ch]
Pra eles o outro lado 
    A6
Eu digo malmequer 
                      Gb7(b5)      
Ninguém escapa ao peso de viver assim: 
Bb7 
Ser assim. 
 
Em7           A7           Gbm   
Eu não, prefiro assim com você, juntinho 
 Bm7          Em7 
Sem caber de imaginar 
  A7
Até o fim raiar. 

(D7M Em7) 


Eb|----------------------------------17-----------------|
Bb|---5-----10~--11-12~--9-12-13-14~-----14-15-16-17~---|
Gb|-2---4~----------------------------------------------|
Db|-----------------------------------------------------|
Ab|-----------------------------------------------------|
Eb|-----------------------------------------------------|



Eb|-19--------------------------------------------------|
Bb|----17-18-19~--19-20-117-19-15-17-15-13-14s15-14~----|
Gb|-----------------------------------------------------|
Db|-----------------------------------------------------|
Ab|-----------------------------------------------------|
E|------------------------------------------------------|



Eb|-----------------------------------------------------|
Bb|-10----10s12~--14s11---------------------------------|
Gb|---11--------------11--------------------------------|
Db|----------------------12-9---------------------------|
Ab|-----------------------------------------------------|
Eb|-----------------------------------------------------|

 
Bm7                        
Pra nós todo amor do mundo 
[ch]Gb7/Bb[/ch]
Pra eles o outro lado 
    A6
Eu digo malmequer 
                      Gb7(b5)      
Ninguém escapa ao peso de viver assim: 
Bb7 
Ser assim. 
 
Em7           A7           Gbm   
Eu não, prefiro assim com você, juntinho 
 Bm7          Em7 
Sem caber de imaginar 
  A7
Até o fim raiar. 

(D7M Em7)
Tap to rate this tab
# A B C D E F G H I J K L M N O P Q R S T U V W X Y Z