Song name
# A B C D E F G H I J K L M N O P Q R S T U V W X Y Z

Los Infernos - World Kaos tab

it is pretty tough but if you practice enough it gets easy
-----9-----8----9---9----3----7----5-----10-----7-------------/
--7----7-----5----8----5----7----5----3-----------------------/
--------------------------------------------------------------/
--------------------------------------------------------------/
--------------------------------------------------------------/
--------------------------------------------------------------/

-----9-----8----9---9----3----7----5-----10-----7-------------/
--7----7-----5----8----5----7----5----3-----------------------/
--------------------------------------------------------------/
--------------------------------------------------------------/
--------------------------------------------------------------/
--------------------------------------------------------------/

-----9-----8----9---9----3----7----5-----10-----7-------------/
--7----7-----5----8----5----7----5----3-----------------------/
--------------------------------------------------------------/
--------------------------------------------------------------/
--------------------------------------------------------------/
--------------------------------------------------------------/
Tap to rate this tab
 
# A B C D E F G H I J K L M N O P Q R S T U V W X Y Z