Los Kjarkas - Imillitay chords

Highlighted       Show chord diagrams
Ritmo (rythm): Tonada-Tinku

Intro: Am - G - Am - G - Am



e|-------------------|---------------|
B|---1-1-1-0-------0-|---0-0-0-------|
G|-----------2-0-----|-0-------2-0-2-|
D|-2-------------2---|---------------|
A|-------------------|---------------|
E|-------------------|---------------|

---0-0-0-----------|-----------------|
---------3-1-0---3-|---3-3-3-1-0-----|
-2-------------0---|-0-----------2---|
-------------------|-----------------|
-------------------|-----------------|
-------------------|-----------------|
-------------------|-----------------|

---0-0-0-----------|-----------------|
---------3-1-0---3-|---3-3-3-1-0-----|
-2-------------0---|-0-----------2---|
-------------------|-----------------|
-------------------|-----------------|
-------------------|-----------------|
-------------------|-----------------|

 Am                G                  Am
Dijiste que me querías pero no es verdad;
                    G                   Am
Siempre jugaste conmigo y aun te supe amar.


 Am                 G                 Am
Vivo pensando olvidarte y no lo consigo,
                     G                      Am
Tus recuerdos son espinas, que hieren mi alma.


 F                C
Muyuspa, muyuspa, imillitay,
  G            Am
K’ori k’entijina....
 F                C
Muyuspa, muyuspa, imillitay,
 G             Am
Sak’erpariwanqui.


Am     G
Imillitay....
                   Am
Sak’erpariwanquipuni,
Am     G
Imillitay....
                   Am
Sak’erpariwanquipuni.
Tap to rate this tab
 
# A B C D E F G H I J K L M N O P Q R S T U V W X Y Z