Song name
# A B C D E F G H I J K L M N O P Q R S T U V W X Y Z

Los Lates - Amante tab

Intro:

     F#     A      B        A
E---2-2----5-5----7-7-7----5-5-5----|
B---2-2----5-5----7-7-7----5-5-5----|
G---3-3----6-6----8-8-8----6-6-6----|   X4
D---4-4----7-7----9-9-9----7-7-7----|
A---4-4----7-7----9-9-9----7-7-7----|
E---2-2----5-5----7-7-7----5-5-5----|



      F#                                A
E---2-2-2-2-2-2-2-2-2-2-2-2-2-2-2-2---5-5-5-5-5-5-5-5-5-5-5-5-5-5-5-5--|
B---2-2-2-2-2-2-2-2-2-2-2-2-2-2-2-2---5-5-5-5-5-5-5-5-5-5-5-5-5-5-5-5--|
G---3-3-3-3-3-3-3-3-3-3-3-3-3-3-3-3---6-6-6-6-6-6-6-6-6-6-6-6-6-6-6-6--|
D---4-4-4-4-4-4-4-4-4-4-4-4-4-4-4-4---7-7-7-7-7-7-7-7-7-7-7-7-7-7-7-7--|
A---4-4-4-4-4-4-4-4-4-4-4-4-4-4-4-4---7-7-7-7-7-7-7-7-7-7-7-7-7-7-7-7--|
E---2-2-2-2-2-2-2-2-2-2-2-2-2-2-2-2---5-5-5-5-5-5-5-5-5-5-5-5-5-5-5-5--|

 B                                              B
E-7-7-7-7-7-7-7-7-7-7-7-7-7-7-7-7--x-7-7-7--x-7-7-7--x-7-7-7--x-7-7-7-|
B-7-7-7-7-7-7-7-7-7-7-7-7-7-7-7-7--x-7-7-7--x-7-7-7--x-7-7-7--x-7-7-7-|
G-8-8-8-8-8-8-8-8-8-8-8-8-8-8-8-8--x-8-8-8--x-8-8-8--x-8-8-8--x-8-8-8-|
D-9-9-9-9-9-9-9-9-9-9-9-9-9-9-9-9--x-9-9-9--x-9-9-9--x-9-9-9--x-9-9-9-|
A-9-9-9-9-9-9-9-9-9-9-9-9-9-9-9-9--x-9-9-9--x-9-9-9--x-9-9-9--x-9-9-9-|
E-7-7-7-7-7-7-7-7-7-7-7-7-7-7-7-7--x-7-7-7--x-7-7-7--x-7-7-7--x-7-7-7-|


F#                                A
E---2-2-2-2-2-2-2-2-2-2-2-2-2-2-2-2---5-5-5-5-5-5-5-5-5-5-5-5-5-5-5-5--|
B---2-2-2-2-2-2-2-2-2-2-2-2-2-2-2-2---5-5-5-5-5-5-5-5-5-5-5-5-5-5-5-5--|
G---3-3-3-3-3-3-3-3-3-3-3-3-3-3-3-3---6-6-6-6-6-6-6-6-6-6-6-6-6-6-6-6--|
D---4-4-4-4-4-4-4-4-4-4-4-4-4-4-4-4---7-7-7-7-7-7-7-7-7-7-7-7-7-7-7-7--|
A---4-4-4-4-4-4-4-4-4-4-4-4-4-4-4-4---7-7-7-7-7-7-7-7-7-7-7-7-7-7-7-7--|
E---2-2-2-2-2-2-2-2-2-2-2-2-2-2-2-2---5-5-5-5-5-5-5-5-5-5-5-5-5-5-5-5--|

 B                                              B                   A
E-7-7-7-7-7-7-7-7-7-7-7-7-7-7-7-7--x-7-7-7--x-7-7-7--x-7-7-7--x-7-7-5-|
B-7-7-7-7-7-7-7-7-7-7-7-7-7-7-7-7--x-7-7-7--x-7-7-7--x-7-7-7--x-7-7-5-|
G-8-8-8-8-8-8-8-8-8-8-8-8-8-8-8-8--x-8-8-8--x-8-8-8--x-8-8-8--x-8-8-6-|
D-9-9-9-9-9-9-9-9-9-9-9-9-9-9-9-9--x-9-9-9--x-9-9-9--x-9-9-9--x-9-9-7-|
A-9-9-9-9-9-9-9-9-9-9-9-9-9-9-9-9--x-9-9-9--x-9-9-9--x-9-9-9--x-9-9-7-|
E-7-7-7-7-7-7-7-7-7-7-7-7-7-7-7-7--x-7-7-7--x-7-7-7--x-7-7-7--x-7-7-5-|



     F#     A      B        A
E---2-2----5-5----7-7-7----5-5-5----|
B---2-2----5-5----7-7-7----5-5-5----|
G---3-3----6-6----8-8-8----6-6-6----|   X4
D---4-4----7-7----9-9-9----7-7-7----|
A---4-4----7-7----9-9-9----7-7-7----|
E---2-2----5-5----7-7-7----5-5-5----|

      F#                                A
E---2-2-2-2-2-2-2-2-2-2-2-2-2-2-2-2---5-5-5-5-5-5-5-5-5-5-5-5-5-5-5-5--|
B---2-2-2-2-2-2-2-2-2-2-2-2-2-2-2-2---5-5-5-5-5-5-5-5-5-5-5-5-5-5-5-5--|
G---3-3-3-3-3-3-3-3-3-3-3-3-3-3-3-3---6-6-6-6-6-6-6-6-6-6-6-6-6-6-6-6--|
D---4-4-4-4-4-4-4-4-4-4-4-4-4-4-4-4---7-7-7-7-7-7-7-7-7-7-7-7-7-7-7-7--|
A---4-4-4-4-4-4-4-4-4-4-4-4-4-4-4-4---7-7-7-7-7-7-7-7-7-7-7-7-7-7-7-7--|
E---2-2-2-2-2-2-2-2-2-2-2-2-2-2-2-2---5-5-5-5-5-5-5-5-5-5-5-5-5-5-5-5--|

 B                                              B
E-7-7-7-7-7-7-7-7-7-7-7-7-7-7-7-7--x-7-7-7--x-7-7-7--x-7-7-7--x-7-7-7-|
B-7-7-7-7-7-7-7-7-7-7-7-7-7-7-7-7--x-7-7-7--x-7-7-7--x-7-7-7--x-7-7-7-|
G-8-8-8-8-8-8-8-8-8-8-8-8-8-8-8-8--x-8-8-8--x-8-8-8--x-8-8-8--x-8-8-8-|
D-9-9-9-9-9-9-9-9-9-9-9-9-9-9-9-9--x-9-9-9--x-9-9-9--x-9-9-9--x-9-9-9-|
A-9-9-9-9-9-9-9-9-9-9-9-9-9-9-9-9--x-9-9-9--x-9-9-9--x-9-9-9--x-9-9-9-|
E-7-7-7-7-7-7-7-7-7-7-7-7-7-7-7-7--x-7-7-7--x-7-7-7--x-7-7-7--x-7-7-7-|


F#                                A
E---2-2-2-2-2-2-2-2-2-2-2-2-2-2-2-2---5-5-5-5-5-5-5-5-5-5-5-5-5-5-5-5--|
B---2-2-2-2-2-2-2-2-2-2-2-2-2-2-2-2---5-5-5-5-5-5-5-5-5-5-5-5-5-5-5-5--|
G---3-3-3-3-3-3-3-3-3-3-3-3-3-3-3-3---6-6-6-6-6-6-6-6-6-6-6-6-6-6-6-6--|
D---4-4-4-4-4-4-4-4-4-4-4-4-4-4-4-4---7-7-7-7-7-7-7-7-7-7-7-7-7-7-7-7--|
A---4-4-4-4-4-4-4-4-4-4-4-4-4-4-4-4---7-7-7-7-7-7-7-7-7-7-7-7-7-7-7-7--|
E---2-2-2-2-2-2-2-2-2-2-2-2-2-2-2-2---5-5-5-5-5-5-5-5-5-5-5-5-5-5-5-5--|

 B                                              B                   A
E-7-7-7-7-7-7-7-7-7-7-7-7-7-7-7-7--x-7-7-7--x-7-7-7--x-7-7-7--x-7-7-5-|
B-7-7-7-7-7-7-7-7-7-7-7-7-7-7-7-7--x-7-7-7--x-7-7-7--x-7-7-7--x-7-7-5-|
G-8-8-8-8-8-8-8-8-8-8-8-8-8-8-8-8--x-8-8-8--x-8-8-8--x-8-8-8--x-8-8-6-|
D-9-9-9-9-9-9-9-9-9-9-9-9-9-9-9-9--x-9-9-9--x-9-9-9--x-9-9-9--x-9-9-7-|
A-9-9-9-9-9-9-9-9-9-9-9-9-9-9-9-9--x-9-9-9--x-9-9-9--x-9-9-9--x-9-9-7-|
E-7-7-7-7-7-7-7-7-7-7-7-7-7-7-7-7--x-7-7-7--x-7-7-7--x-7-7-7--x-7-7-5-|


Solo:
   F#   A   B      A       F#   A    B     A        F#    A   B      A
E--------------------------------------------------------------------------|
B---------------------------------------------------3-3--6-6--8-8-8--6-6-6-|
G-3-3--6-6--8-8-8--6-6-6---3-3--6-6--8-8-8--6-6-6--------------------------|
D--------------------------------------------------------------------------|
A--------------------------------------------------------------------------|
E--------------------------------------------------------------------------|

  F#   A    B     A            F#                              A
E--------------------------------------------------------------------------|
B-3-3--6-6--8-8-8--6-6-6------3333333333333333333333333333333-666666666666-|
G--------------------------------------------------------------------------|
D--------------------------------------------------------------------------|
A--------------------------------------------------------------------------|
E--------------------------------------------------------------------------|

                B
E-------------------------------------------------------------------------|
B-66666666666-88888888888888888888888888888888888888-8b9-8b9-8b9-8b9-8-6--|
G-------------------------------------------------------------------------|
D-------------------------------------------------------------------------|
A-------------------------------------------------------------------------|
E-------------------------------------------------------------------------|

  F#                              A                           B
E--------------------------------------------------------------------------|
B-3333333333333333333333333333333-66666666666666666666666666-8888888888888-|
G--------------------------------------------------------------------------|
D--------------------------------------------------------------------------|
A--------------------------------------------------------------------------|
E--------------------------------------------------------------------------|


E--------------------------------------------------------------------------|
B-888888888888-8b9-8b9-8b9-8b9-8-6-----------------------------------------|
G--------------------------------------------------------------------------|
D--------------------------------------------------------------------------|
A--------------------------------------------------------------------------|
E--------------------------------------------------------------------------|


     F#     A      B        A
E---2-2----5-5----7-7-7----5-5-5---|
B---2-2----5-5----7-7-7----5-5-5---|
G---3-3----6-6----8-8-8----6-6-6---|
D---4-4----7-7----9-9-9----7-7-7---|  x4
A---4-4----7-7----9-9-9----7-7-7---|
E---2-2----5-5----7-7-7----5-5-5---|


F#                                A
E---2-2-2-2-2-2-2-2-2-2-2-2-2-2-2-2---5-5-5-5-5-5-5-5-5-5-5-5-5-5-5-5--|
B---2-2-2-2-2-2-2-2-2-2-2-2-2-2-2-2---5-5-5-5-5-5-5-5-5-5-5-5-5-5-5-5--|
G---3-3-3-3-3-3-3-3-3-3-3-3-3-3-3-3---6-6-6-6-6-6-6-6-6-6-6-6-6-6-6-6--|
D---4-4-4-4-4-4-4-4-4-4-4-4-4-4-4-4---7-7-7-7-7-7-7-7-7-7-7-7-7-7-7-7--|
A---4-4-4-4-4-4-4-4-4-4-4-4-4-4-4-4---7-7-7-7-7-7-7-7-7-7-7-7-7-7-7-7--|
E---2-2-2-2-2-2-2-2-2-2-2-2-2-2-2-2---5-5-5-5-5-5-5-5-5-5-5-5-5-5-5-5--|

 B                                              B                   A
E-7-7-7-7-7-7-7-7-7-7-7-7-7-7-7-7--x-7-7-7--x-7-7-7--x-7-7-7--x-7-7-5-|
B-7-7-7-7-7-7-7-7-7-7-7-7-7-7-7-7--x-7-7-7--x-7-7-7--x-7-7-7--x-7-7-5-|
G-8-8-8-8-8-8-8-8-8-8-8-8-8-8-8-8--x-8-8-8--x-8-8-8--x-8-8-8--x-8-8-6-|
D-9-9-9-9-9-9-9-9-9-9-9-9-9-9-9-9--x-9-9-9--x-9-9-9--x-9-9-9--x-9-9-7-|
A-9-9-9-9-9-9-9-9-9-9-9-9-9-9-9-9--x-9-9-9--x-9-9-9--x-9-9-9--x-9-9-7-|
E-7-7-7-7-7-7-7-7-7-7-7-7-7-7-7-7--x-7-7-7--x-7-7-7--x-7-7-7--x-7-7-5-|


Fin
   F#     A      B        A
E---2-2----5-5----7-7-7----5-5-5--2-2-2-x-x-2-2-2-|
B---2-2----5-5----7-7-7----5-5-5--2-2-2-x-x-2-2-2-|
G---3-3----6-6----8-8-8----6-6-6--3-3-3-x-x-3-3-3-|
D---4-4----7-7----9-9-9----7-7-7--4-4-4-x-x-4-4-4-|
A---4-4----7-7----9-9-9----7-7-7--4-4-4-x-x-4-4-4-|
E---2-2----5-5----7-7-7----5-5-5--2-2-2-x-x-2-2-2-|
Tap to rate this tab
 
# A B C D E F G H I J K L M N O P Q R S T U V W X Y Z