Song name
# A B C D E F G H I J K L M N O P Q R S T U V W X Y Z

Los Lobos - Once Apon A Time In Mexico tab

        Riff 1
--------------------------------------|
--------------------------------------|
--------------------------------------|
--------------------------------------|
--4--4--7---4--4--7---4--4--7--5-4-2--|
-5--5------5--5------5--5-------------|

        Riff 2
--------------------------------------|
--------------------------------------|
--------------------------------------|
--4--4-7----4--4-7---4--4-7--5-4-5----|
-5--5------5--5-----5--5--------------|
--------------------------------------|

...now then play it again till you get bored, oh and if any one gets the
rest of the song please finish and send.   -Gomez
Tap to rate this tab
 
# A B C D E F G H I J K L M N O P Q R S T U V W X Y Z